INTRO-OUTRO - pulley


Tabbed By: Kiv Ghatora
[email protected]

Part 1
e|---------------------------------------------------------------------------|
B|---------------------------------------------------------------------------|
G|-8---10-10-10-10-10-10-10--------------------------------------------------|
D|-8---10-10-10-10-10-10-10--------------------------------------------------|
A|-6---8--8--8—-8--8--8--8---------------------------------------------------|
E|---------------------------------------------------------------------------|

Part 2
e|---------------------------------------------------------------------------|
B|---------------------------------------------------------------------------|
G|-7-7-7-7-7-7-7-7-7-7-7-7---------------------------------------------------|
D|-7-7-7-7-7-7-7-7-7-7-7-7---------------------------------------------------|
A|-5-5-5-5-5-5-5-5-5-5-5-5---------------------------------------------------|
E|---------------------------------------------------------------------------|

Part 3
e|---------------------------------------------------------------------------|
B|---------------------------------------------------------------------------|
G|---------------------------------8-7-7-------------------------------------|
D|--5-5-5-5-5-5---3-3-3-3-3-3------8-7-7-8-8-8-8-8---------------------------|
A|--5-5-5-5-5-5---3-3-3-3-3-3------6-5-5-8-8-8-8-8---------------------------|
E|--3-3-3-3-3-3---1-1-1-1-1-1------------6-6-6-6-6---------------------------|

End
e|---------------------------------------------------------------------------|
B|---------------------------------------------------------------------------|
G|------------------------------8--------------------------------------------|
D|--5-5-5-5-5-5---3-3-3-3-3-3---8--------------------------------------------|
A|--5-5-5-5-5-5---3-3-3-3-3-3---6--------------------------------------------|
E|--3-3-3-3-3-3---1-1-1-1-1-1------------------------------------------------|


Текст, аккорды и табулатура для песни "Intro-outro", исполняет "Pulley".
Используемые в песне аккорды можно найти в разделе Как брать аккорды. Аккорды для шестиструнной гитары. Другие песни можно найти на нашем сайте, воспользовавшись алфавитным указателем вверху страницы.


 
Ошибка в тексте? Выделите ошибку и нажмите Ctrl+Enter