Pulley - Gone

No one's made tabs for this song yet, so i thought I'd put some up.
Really easy song to play, mostly power chords.

Legend: 
// - slide up
 - slide down

Standard Tuning: EBGDAE
Intro:
___________________________________________________________________
E----------5555-4444-----------------------------5555-4444-77777777------
B-55555555-----------55555555-----------55555555--------------------5555-
G-----------------------------6666-4444----------------------------------
D------------------------------------------------------------------------
A------------------------------------------------------------------------
E------------------------------------------------------------------------

E-----------------
B-----------------
G--------22-2--3
D-33-3--22-2--3
A-33-3--00-0--1
E-11-1-----------
___________________________________________________________________
Verses:
_______________________________
E---------------------
B---------------------
G-7777--------3333
D-7777--3333--3333
A-5555--3333--1111
E-------1111------- (6x)
_______________________________
Chorus:
__________________________________________
E----------------------------------------
B----------------------------------------
G-10101010--55555555--77777777-----------
D-10101010--55555555--77777777--88888888-
A-88888888--33333333--55555555--88888888-
E-------------------------------66666666-

E---------------------------------------------
B---------------------------------------------
G-----------55555555--77777777----------------
D-33333333--55555555--77777777--88888888------
A-33333333--33333333--55555555--88888888------
E-11111111----------------------66666666------
__________________________________________
E-------------5555-4444-------------------------
B-55555555-------------55555555-----------------
G------------------------------------6666-4444--
D-----------------------------------------------
A-----------------------------------------------
E-----------------------------------------------

E-----------------
B-----------------
G-------22-2--3---
D-33-3--22-2--3---
A-33-3--00-0--1---
E-11-1------------
Then back to verses
___________________________________________
Ending Part:
___________________________________________
E----------------------
B----------------------
G-----------333//833-
D-333--777--333//833-
A-333--777--111//611-
E-111--555------------- (around 9x, let last note ring on last time)
___________________________________________


Текст, аккорды и табулатура для песни "Gone", исполняет "Pulley".
Используемые в песне аккорды можно найти в разделе Как брать аккорды. Аккорды для шестиструнной гитары. Другие песни можно найти на нашем сайте, воспользовавшись алфавитным указателем вверху страницы.


 
Ошибка в тексте? Выделите ошибку и нажмите Ctrl+Enter