FUN - Pulley

By:Yasushi; [email protected]

[email protected]
[email protected]
[email protected]
[email protected]
[email protected]
[email protected]

e|-----|-----|-----|-----|-----|-----|-------------------|
B|-----|-----|-----|-----|-----|-----|-------------------|
G|-----|--4--|--5--|-----|-----|-----|--7----------------|
D|--5--|--4--|--5--|--7--|--5--|--2--|--7--|
A|--5--|--2--|--3--|--7--|--5--|--2--|--5----------------|
E|--3--|-----|-----|--5--|--3--|--0--|-------------------|

e|----------------------------------------------------------------------|
B|----------------------------------------------------------------------|
G|--------------5-----7--------5-----7-----------5-----5-----7---[end]--|
D|--5-----2-----5-----7--}x2---5-----7-----5-----5-----5-----7-----5----|
A|--5-----2-----3-----5--------3-----5-----5-----3-----3-----5-----5----|
E|--3-----0--------------------------------3-----------------------3----|

HAVE FUN!


Текст, аккорды и табулатура для песни "Fun", исполняет "Pulley".
Используемые в песне аккорды можно найти в разделе Как брать аккорды. Аккорды для шестиструнной гитары. Другие песни можно найти на нашем сайте, воспользовавшись алфавитным указателем вверху страницы.


 
Ошибка в тексте? Выделите ошибку и нажмите Ctrl+Enter