CASHED IN - Pulley


By: Jason ([email protected])

INTRO:
-----|------------------------|--------------------------|
-3-3-|--3---3---4----3--4--3--|-6---4---3----3--3-3-3-3--|
-3-3-|*-3---3---3----3--3--3--|-3---3---3----3--3-3-3-3-*|
-3-3-|*-3---3---3----3--3--3--|-3---3---3----3--3-3-3-3-*|
-----|------------------------|--------------------------|
-----|------------------------|--------------------------|

Fig. 1
-----------------------|-----------------------|-----------------------|
-----------------------|-----------------------|-3---3---4----3--4--3--|
-----------------------|-8---8---8----8--8--8--|-3---3---3----3--3--3--|
-3---3---3----3--3--3--|-8---8---8----8--8--8--|-3---3---3----3--3--3--|
-3---3---3----3--3--3--|-6---6---6----6--6--6--|-----------------------|
-1---1---1----1--1--1--|-----------------------|-----------------------|

-------------------------|
-6---4---3----3--3-3-3-3-|
-3---3---3----3--3-3-3-3-|
-3---3---3----3--3-3-3-3-|
-------------------------|
-------------------------|

VERSE:
Fig. 1, 3x, then...
Fig. 2
-----------------------------|-----------------------|
-----------------------------|-----------------------|
-10---10---10----10--10--10--|-8---8---8----8--8--8--|
-10---10---10----10--10--10--|-8---8---8----8--8--8--|
--8----8----8-----8---8---8--|-6---6---6----6--6--6--|
-----------------------------|-----------------------|

-----------------------|-----------------------|-----------------------|
-----------------------|-----------------------|-----------------------|
-----------------------|-8---8---8----8--8--8--|-----------------------|
-8---8---8----8--8--8--|-8---8---8----8--8--8--|-3---3---3----3--3--3--|
-8---8---8----8--8--8--|-6---6---6----6--6--6--|-3---3---3----3--3--3--|
-6---6---6----6--6--6--|-----------------------|-1---1---1----1--1--1--|

1ST BRIDGE:
-----------------------|-------------------------|-----------------------|
-3---3---4----3--4--3--|-6---4---3----3--3-3-3-3-|-----------------------|
-3---3---3----3--3--3--|-3---3---3----3--3-3-3-3-|-8---8---8----8--8--8--|
-3---3---3----3--3--3--|-3---3---3----3--3-3-3-3-|-----------------------|
-----------------------|-------------------------|-6---6---6----6--6--6--|
-----------------------|-------------------------|-----------------------|

-----------------------|-----------------------|-----------------------|
-----------------------|-----------------------|-----------------------|
-7---7---7----7--7--7--|-5---5---5----5--5--5--|-7---7---7----7--7--7--|
-----------------------|-----------------------|-----------------------|
-5---5---5----5--5--5--|-3---3---3----3--3--3--|-5---5---5----5--5--5--|
-----------------------|-----------------------|-----------------------|

-----------------------|-----------------------|
-----------------------|-----------------------|
-8---8---8----8--8--8--|-7---7---7----7--7--7--|
-----------------------|-----------------------|
-6---6---6----6--6--6--|-5---5---5----5--5--5--|
-----------------------|-----------------------|

-----------------------|-------------------------|
-3---3---4----3--4--3--|-6---4---3----3--3-3-3-3-|
-3---3---3----3--3--3--|-3---3---3----3--3-3-3-3-|
-3---3---3----3--3--3--|-3---3---3----3--3-3-3-3-|
-----------------------|-------------------------|
-----------------------|-------------------------|

2ND VERSE:
Fig. 1, 3x, then Fig. 2

2ND BRIDGE:
-----------------------|-------------------------|------------------------|
-3---3---4----3--4--3--|-6---4---3----3--3-3-3-3-|------------------------|
-3---3---3----3--3--3--|-3---3---3----3--3-3-3-3-|*-8---8---8----8--8--8--|
-3---3---3----3--3--3--|-3---3---3----3--3-3-3-3-|*-----------------------|
-----------------------|-------------------------|--6---6---6----6--6--6--|
-----------------------|-------------------------|------------------------|

-----------------------|-----------------------|-----------------------|
-----------------------|-----------------------|-----------------------|
-7---7---7----7--7--7--|-5---5---5----5--5--5--|-7---7---7----7--7--7--|
-----------------------|-----------------------|-----------------------|
-5---5---5----5--5--5--|-3---3---3----3--3--3--|-5---5---5----5--5--5--|
-----------------------|-----------------------|-----------------------|

-----------------------|-----------------------|----|-/---|
-----------------------|-----------------------|-*--|/----|
-5---5---5----5--5--5--|-3---3---3----3--3--3--|----/----*|
-----------------------|-----------------------|---/|----*|
-3---3---3----3--3--3--|-1---1---1----1--1--1--|--/-|-*---|
-----------------------|-----------------------|-/--|-----|

-----------------------|----|
-----------------------|-*-/|
-3---3---3----3--3--3--|--/-|
-----------------------|-/--|
-1---1---1----1--1--1--|/-*-|
-----------------------|----|

CHORUS/OUTRO:
------------------------|-----------------------|-----------------------|
------------------------|-----------------------|-3---3---4----3--4--3--|
*-----------------------|-----------------------|-3---3---3----3--3--3--|
*-3---3---3----3--3--3--|-6---6---6----6--6--6--|-3---3---3----3--3--3--|
--3---3---3----3--3--3--|-6---6---6----6--6--6--|-----------------------|
--1---1---1----1--1--1--|-4---4---4----4--4--4--|-----------------------|
__________________________ ____________________
1., 2., 3., 4.         5.
--------------------------|--------------------|
-6---4---3----3--3-3-3-3--|-6---4---3---------|
-3---3---3----3--3-3-3-3-*|-3---3---3---------|
-3---3---3----3--3-3-3-3-*|-3---3---3---------|
--------------------------|--------------------|
--------------------------|--------------------|
===========


-------------------------------------------------------------------------------
                              CASHED IN - Pulley
-------------------------------------------------------------------------------

By: Dennis Ferdinand ([email protected])

DROP D TUNING

Riff 1    
     3:-7-7-8-7-8-7-10-8-7--I---------------I
     4:-7-7-8-7-8-7-10-8-7--I--3-3-3--1-1-1-I
     5:-5-5-6-5-6-5--8-6-5--I--3-3-3--1-1-1-I
     6:---------------------I--3-3-3--1-1-1-I

Brigde
Part 1
     3:-10-10-10-10-10-10-8-8-8-8-8-8-15-15-15-15-15-15-8-8-8-8-8-8-I
     4:-10-10-10-10-10-10-8-8-8-8-8-8-15-15-15-15-15-15-8-8-8-8-8-8-I
     5:--8---8--8---8---8-6-6-6-6-6-6-13-13-13-13-13-13-6-6-6-6-6-6-I

     3:-10-10-10--8-8-8-I
     4:-10-10-10--8-8-8-I
     5:-8---8--8--6-6-6-I

Guitar2
     4:-3-3-3-1-1-1-I
     5:-3-3-3-1-1-1-I
     6:-3-3-3-1-1-1-I

Play beginnig of riff 1

Part 2    
     3:-8-8-8-8-8-8-7-7-7-7-7-7-5-5-5-5-5-5-7-7-7-7-7-7-I-5-5-5-3-3-3-5-5-5-3-3-3-I
     4:-8-8-8-8-8-8-7-7-7-7-7-7-5-5-5-5-5-5-7-7-7-7-7-7-I-5-5-5-3-3-3-5-5-5-3-3-3-I
     5:-6-6-6-6-6-6-5-5-5-5-5-5-3-3-3-3-3-3-5-5-5-5-5-5-I-3-3-3-1-1-1-3-3-3-1-1-1-I

Towards the end of the song, the end of riff 1 becomes this
     3:-------------7-7-8-7-8-7-10-8-7--------------I
     4:-3-3-3-6-6-6-7-7-8-7-8-7-10-8-7--3-3-3-6-6-6-I
     5:-3-3-3-6-6-6-5-5-6-5-6-5--8-6-5--3-3-3-6-6-6-I
     6:-3-3-3-6-6-6---------------------3-3-3-6-6-6-I


Текст, аккорды и табулатура для песни "Cashed In", исполняет "Pulley".
Используемые в песне аккорды можно найти в разделе Как брать аккорды. Аккорды для шестиструнной гитары. Другие песни можно найти на нашем сайте, воспользовавшись алфавитным указателем вверху страницы.


 
Ошибка в тексте? Выделите ошибку и нажмите Ctrl+Enter