Artist: Puddle of mudd
Song: Control
Album: Coming Clean
By Billy [email protected]     
Hi, this is my first tab but I think that everything is right, 
I couldn’t be bothered to put the last bit down because it Its 
so easy this is a great song by a great band so enjoy! 
This tab has not been on any other sites that I have seen 
so this is the first site to have it!


A----------------------------- /1st time-3 times / 4th time -once -------
E-9-9-99-12-12-12-11---- / 7-7-77-222-0    / 14-12-11-12------------



The end bits using similar notes so it won’t be hard to work out!                                                                           

Artist: Puddle of Mudd
album: Come Clean
song: Control
tabbed by: Trey([email protected])
comments: Puddle of Mudd's guitars are tuned one and a 
half steps down(C#,F#,B,E) but I decided to tab it out 
in drop D-flat(Db,Ab,Db,Gb)cuz I didnt feel like tuning 
all the way down. play with a pick

Gb -----------------------------|--------------------------
Db *----------------------------|------------------------*-
Ab *----------------------------|-3--3-3-----------------*-
Db --0--0-0-0--0-3-3-3-3-3-2-0-0|--------0--5-5-5-5-5-3-3--

Gb ------------------------------------------------------------------
Db *----------------------------------------------------------------*
Ab *---------------------------------3-3-3-3--3-3-3-----------------*
Db -0--0-0-0--0-3-(3)3-3-3--3-2-2-3----------------5(5)-5-5-5-5-3--3-   

chorus: same as intro

breakdown:(2:09) 3x's
Gb -------------
Db -------------
Ab --3-5-----3-5
Db -------------

then play this once:    
Gb ---------------------------------
Db ---------------------------------
Ab --3-5--5-5-5---3-5--5-5-58-8-8-8
Db ---------------------------------

Gb -------------------------
Db -------------------------
Ab --3-5--5----3-5----8-8---
Db -----------0------0------

then play:5x's and on the 5th time ride the Ab-8
Gb ----------------------------------
Db ----------------------------------
Ab -3-5-5-5--5--5-3-5-5-5--5--5--8-8-
Db ----------------------------------

that's the song just that one riff modifided a little bit.
if you have any questions, drop me a line.

Текст, аккорды и табулатура для песни "Control", исполняет "Puddle Of Mudd".
Используемые в песне аккорды можно найти в разделе Как брать аккорды. Аккорды для шестиструнной гитары. Другие песни можно найти на нашем сайте, воспользовавшись алфавитным указателем вверху страницы.

Слушать онлайн Control (In the Style of Puddle of Mudd)

Off the Record KaraokeControl (In the Style of Puddle of Mudd) на Яндекс.Музыке

Ошибка в тексте? Выделите ошибку и нажмите Ctrl+Enter