Tune guitar a half-step down...
Tuning Low to High: (Eb, Ab, Db, Gb, Bb, Eb)

Explanation of Tab:

Natural Harmonic... < >
Palm Mute.......... pm
Vibrato............ ~
Slide up........... /
Slide down......... 
ghost note......... ( ) slide to but don't pick the note shown in
                        parenthesis
                                                                           
Intro:  

   Rhy Fig 1
eb|-----------------------------------------------------|
Bb|-----------------------------------------------------|
Gb|--------------------------------------------|
Db|--------------------------------------------|
Ab|-3--3----------3--3--3--3---------3--3--3--3---------|
Eb|-----------------------------------------------------|
                        pm                 pm



eb|--------------------------------------------------------------|
Bb|--------------------------------------------------------|
Gb|-----------------------------------------------|
Db|-0--0-------0-----------------0----------------|
Ab|--------------------------------------------------------------|
Eb|--------------------------------------------------------------|
                  pm                      pm



eb|---------------------------------------------------------|
Bb|---------------------------------------------------|
Gb|------------------------------------------------|
Db|------------------------------------------------|
Ab|-7--7----------7----------------------7---------------------|
Eb|------------------------------------------------------------|
                  pm                     pm


                                                  End Rhy Fig 1
eb|---------------------------------------------------------|
Bb|---------------------------------------------------|
Gb|------------------------------------------------|
Db|------------------------------------------------|
Ab|-7--7----------7----------------------7---------------------|
Eb|------------------------------------------------------------|
                  pm                     pm



   Rhy Fig 2
eb|-----------------------------------|
Bb|-----------------------------------|
Gb|-----------------------------------|
Db|--------5--4-------4h5-4h5-4h5-----|
Ab|-2/(3)----------3------------------|
Eb|-----------------------------------|



eb|-----------------------------------|
Bb|-----------------------------------|
Gb|-----------------------------------|
Db|--------5--4-------4h5-4h5-4h5-----|
Ab|-3/(5)----------5------------------|
Eb|-----------------------------------|



eb|-----------------------------------|
Bb|-----------------------------------|
Gb|-----------------------------------|
Db|--------5--4-------4h5-4h5-4h5-----|
Ab|-5/(7)----------7------------------|
Eb|-----------------------------------|


                         End Rhy Fig 2
eb|-----------------------------------|
Bb|-----------------------------------|
Gb|---------------------------4~~-----|
Db|--------5--4-------4h5-4h5---------|
Ab|-5/(7)----------7------------------|
Eb|-----------------------------------|



Pre-Chorus:  Distortion

eb|-----------------------------------------------------
Bb|-----------------------------------------------------
Gb|-----------------------------------------------------
Db|-6-/(7)(6)-6-/-(9)--9--9--9-/(12)--12--12--12-/(14)-
Ab|-----------------------------------------------------
Eb|-----------------------------------------------------


----------------------------------------|
----------------------------------------|
----------------------------------------|
----------------------------------------|
-14--14--14--14--14-/(16)--16--16--17~~-|
----------------------------------------|


Chorus: (Can ya take me all the way hey...)

(strumming pattern not shown)
eb|----------|-------------|-------------|
Bb|----------|-------------|-------------|
Gb|-5--------|-5/7---------|-------------|
Db|-5--------|-5/7---------|-0h2---------|
Ab|-3--------|-3/5---------|-0h2---------|
Eb|-3--------|-3/5---------|-0-0---------|


Bridge: 

Riff A
eb|---------------------------------------|
Bb|---------------------------------------|
Gb|-11-/-(12)--12---12---12---11---11-----|
Db|-x----------x----x----x----x----x------|
Ab|-9--/-(10)--10---10---10---9----9h10p9-|
Eb|-0-------------------------0-----------|


eb|----------------------------------------|
Bb|----------------------------------------|
Gb|-11-/-(12)--12---12---12---11---11---11-|
Db|-x----------x----x----x----x----x----x--|
Ab|-9--/-(10)--10---10---10---9----9----9--|
Eb|-0-------------------------0------------|



Riff B                     {        (x2)
eb|------------------------|-----------------------------
Bb|------------------------|-----------------------------
Gb|------------------------|-----------------------------
Db|-9~~---------9--7~~----|---4--4h5--5--5--5--4--4h5p4-
Ab|------------------------|-----------------------------
Eb|------------------------|-----------------------------


                 } 
-----------------|
-----------------|
-----------------|
-4h5--5--5--5--4-|
-----------------|
-----------------|


*** Song Structure ***

Rhy Fig 1   x 4
Rhy Fig 2   x 1.5  (only play the first 2 bars the second time)
Pre-Chorus
Chorus      x 2

Rhy Fig 1   x 2
Rhy Fig 2   x 1.5
Pre-Chorus
Chorus      x 2

Bridge
Riff A      x 4
Riff B      x 2
Chorus      x 2

Rhy Fig 1   x 2


Текст, аккорды и табулатура для песни "Blurry", исполняет "Puddle Of Mudd".
Используемые в песне аккорды можно найти в разделе Как брать аккорды. Аккорды для шестиструнной гитары. Другие песни можно найти на нашем сайте, воспользовавшись алфавитным указателем вверху страницы.


Слушать онлайн Blurry


Puddle Of MuddBlurry на Яндекс.Музыке


 
Ошибка в тексте? Выделите ошибку и нажмите Ctrl+Enter