G|-------|---------|---------|------------------|---------|---------|--------
D|-2--2х-|-2-4--4х-|-4-5--5х-|-5-4--4х--4-2--2х-|-2-4--4х-|-4-5--5х-|-4-2--4х-
A|----2х-|------4х-|------5х-|------4х-------2х-|------4х-|------5х-|------4х-
E|----0х-|------2х-|------3х-|------2х-------0х-|------2х-|------3х-|------2х-
"х" здесь, как все уже наверное догадались, - это глушение.

G|-------|--------|--------|----------------|--------|--------|-------
D|-2-4-2-|-2-4--4-|-4-5--5-|-5-4--4--4-2--2-|-2-4--4-|-4-5--5-|-4-2--2-
A|-----2-|------4-|------5-|------4-------2-|------4-|------5-|------4-
E|-----0-|------2-|------3-|------2-------0-|------2-|------3-|------2-

Идите все на х*й - не лезьте мне в душу!
Идите все на х*й - не лезьте мне в душу!
Идите все на х*й - не лезьте мне в душу!
Идите все на х*й, на х*й...

G|------|--------|--------|----------------|--------|--------|-------
D|-2--2-|-2-4--4-|-4-5--5-|-5-4--4--4-2--2-|-2-4--4-|-4-5--5-|-4-2--4-
A|-2--2-|-2-4--4-|-4-5--5-|-5-4--4--4-2--2-|-2-4--4-|-4-5--5-|-4-2--4-
E|-0--0-|-0-2--2-|-2-3--3-|-4-2--2--2-0--0-|-0-2--2-|-2-3--3-|-2-0--2-
                                  "Не лезьте мне в душу! На х*й..."

Проигрыш:
G|------|--------|--------|----------------|--------|--------|-------
D|-2--2-|-2-4--4-|-4-5--5-|-5-4--4--4-2--2-|-2-4--4-|-4-5--5-|-4-2--4-
A|-2--2-|-2-4--4-|-4-5--5-|-5-4--4--4-2--2-|-2-4--4-|-4-5--5-|-4-2--4-
E|-0--0-|-0-2--2-|-2-3--3-|-4-2--2--2-0--0-|-0-2--2-|-2-3--3-|-2-0--2-

Тут же всупает вторая гитара и играет на четветой струне вот это (тремоло):
A/222222|444444|555555|444444222222|444444|555555|444444

Затем:
D/--2--|--4--|--5--|--4--
(В перерывах там молотят барабаны)

После:
G|----|----|----|-----
D|2222|4444|5555|4444-
A|2222|4444|5555|4444-
E|0000|2222|3333|2222-

На х*й...!
На х*й...!
На х*й...!
На х*й, на х*й...!

G|-------
D|22445544
A|22445544
E|00223322

Не лезьте мне в душу!
Не лезьте мне в душу!

G|--------|--------|
D|2-4-5-4-|2-4-5-4-|
A|2-4-5-4-|2-4-5-4-|
E|0-2-3-2-|0-2-3-2-|

Не лезьте мне в душу - идите все на х*й!
Не лезьте мне в душу - идите все на х*й! (здесь коротенький перерывчик)
Не лезьте мне в душу - идите все на х*й!
Не лезьте мне в душу - идите все на х*й!

Перерывчик выглядит так:
G|------
D|2-4-5~
A|2-4-5~
E|0-2-3~

Затем:
G|--------|--------|-------
D|2х-24х-45х-54х-|24542-2~~
A|2х-24х-45х-54х-|24542-2~~
E|0х-02х-23х-32х-|02320-0~~

Вот мое послание,
Людям с планеты Земля! Земля...

P.S. В принципе все это можно было сыграть в D, т.е. 
настроив шестую струну в унисон с пятой на седьмом ладу - играть будет гораздо проще.

Главная тема тогда будет выглядеть так:
G|------|--------|--------|----------------|--------|--------|-------
D|-2--2-|-2-4--4-|-4-5--5-|-5-4--4--4-2--2-|-2-4--4-|-4-5--5-|-4-2--4-
A|-2--2-|-2-4--4-|-4-5--5-|-5-4--4--4-2--2-|-2-4--4-|-4-5--5-|-4-2--4-
D|-2--2-|-2-4--4-|-4-5--5-|-5-4--4--4-2--2-|-2-4--4-|-4-4--5-|-4-2--4-



Текст, аккорды и табулатура для песни "Людям Планеты Земля", исполняет "Психея".
Используемые в песне аккорды можно найти в разделе Как брать аккорды. Аккорды для шестиструнной гитары. Другие песни можно найти на нашем сайте, воспользовавшись алфавитным указателем вверху страницы.


 
Ошибка в тексте? Выделите ошибку и нажмите Ctrl+Enter