-------------------------------------------------------------------------------
			     SKA SUCKS - Propagandhi
-------------------------------------------------------------------------------

By: William Learned ([email protected])

INTRO:                X3
G|----------------------|----------------------------------------------------|
D|-----4--4p5h----------|----4--4p5h-----------------------------------------|
A|--555-55-------2--0040|-555-55-------2--0>---------------------------------|
E|-------------33-3-----|------------33-3------------------------------------|

VERSE (WHERE VOCALS COME IN):
G|---------------------------------------------------------------------------|
D|-0457-0457------------0457-0457--------------------------------------------|
A|----------------0457-----------------0>------------------------------------|
E|-----------3202-----------------3202---------------------------------------|

G|---------------------------------------------------------------------------|
D|-0457-0457-----------0457-0457-----------0457-0457-------------------------|
A|----------------0457----------------0457----------------0457---------------|
E|-----------3202----------------3202----------------3202--------------------|

G|---------------------------------------------------------------------------|
D|-0457-0457-----------0457-0457-----------0457-0457-------------------------|
A|----------------0457----------------0457----------------0457---------------|
E|-----------3202----------------3202----------------3202--------------------|

G|---------------------------------------------------------------------------|
D|-0457-0457-----------0457-0457-----------0457-0457-------------------------|
A|----------------0457----------------0457----------------0457---------------|
E|-----------3202----------------3202----------------3202--------------------|

INTERLUDE (RUDY):
G|---------------------------------------------------------------------------|
D|---------------------------4-7--4-7--4-7-0457-0457-------------------------|
A|--5-------5-------5-------5----5----5-------------------0457---------------|
E|---------------------------------------------------3202--------------------|
VERSE FAST:				    X4 END MEDLEY:
G|----------------------------------|--------8-------------------------------|
D|----------------------------------|-888450---------------------------------|
A|--5>---------5>---------5>--------|----------------------------------------|
E|------333545-----333545-----333545|----------------------------------------|

===============================================================================
Email me to tell me how bad it is or where I messed up. This is my first attempt at 
tabbing a song.


Текст, аккорды и табулатура для песни "Ska Sucks", исполняет "Propagandhi".
Используемые в песне аккорды можно найти в разделе Как брать аккорды. Аккорды для шестиструнной гитары. Другие песни можно найти на нашем сайте, воспользовавшись алфавитным указателем вверху страницы.


Слушать онлайн Ska Sucks


PropagandhiSka Sucks на Яндекс.Музыке


 
Ошибка в тексте? Выделите ошибку и нажмите Ctrl+Enter