------------------------------------------------------------------------
            HAILLIE SELLASSE, UP YOUR ASS      PROPAGANDHI
------------------------------------------------------------------------

VERSE
PART A
G]---------------------------------------------------------]
D]---------------------------------------------------------]
A]-------------------------2-3-------------------------3-2-]x3
E]-5-5-5-5-5-5-5-5-3-3-3-3-----1-1-1-1-1-1-1-1-3-3-3-3-----]

PART B
G]---------------------------------------------------------]
D]---------------------------------------------------------]
A]-------------------------2-3-----------------3-3-3-3-3-2-]
E]-5-5-5-5-5-5-5-5-3-3-3-3-----1-1-1-1-1-1-1-1-------------]

VERSE: PART A (x6)
BRIDGE
G]-------------------------------------------------------------]
D]---------------------------------------------------5---------]
A]-------------------------2-3-------------------------5-7-5-3-]x2
E]-5-5-5-5-5-5-5-5-3-3-3-3-----5-5-5-5-5-5-5-5-3-3-3-----------]

VERSE: PART A (x7)
BRIDGE
VERSE: PART A (x5)
       PART B

TABBED BY FUNKEL




Текст, аккорды и табулатура для песни "Haillie Sellasse Up Your Ass", исполняет "Propagandhi".
Используемые в песне аккорды можно найти в разделе Как брать аккорды. Аккорды для шестиструнной гитары. Другие песни можно найти на нашем сайте, воспользовавшись алфавитным указателем вверху страницы.


 
Ошибка в тексте? Выделите ошибку и нажмите Ctrl+Enter