Song: One Armed Man (Play On)
Artist: Project 86
Album: Drawing Black Lines
Drop-D Tuning

I noticed that there were no tabs that were right (or complete) on this awesome song
by one of the best bands out there.  This should be exactly correct.

Intro/Verse x7 (x2 Intro, x5 Verse)
G-------------------------------------------|
D-------------------------------------------|
A---5----5-5--------------5---5-5------5-333|
D-0---00-----3333-5555--0--00-----3333------|

Chorus x4
G---------------------------------|
D---------------------------------|
A-1111-3333-----5p3-3h5--3h5--3h5-|
D------------00-------------------|

Verse x4
Chorus x4 

Interlude
G---------------------------------|
D---------------------------------|
A-0-0-0-0-0-0-0-0-0-0-0-0-0-0-0-0-|
D---------------------------------|

Bridge A x4
G----------------------------------|
D----------------------------------|
A-5---------------------------3333-|
D---0--0-333--0-333----0--3333-----|

Bridge B
G-------------------------------------|
D-------------------------------------|
A-5__---3__--------------3__----------|
D----0__----5-5-3-0__-3__----55555555-|

End Riff x16 (fast)
G-----------------|
D-----------------|
A---5-------------|
D-0---0-0-3-5-6-5-|

Bridge A x4
End Riff x16
Chorus x4, then:
G---------------------|
D---------------------|
A-1111-3333-1111-3333-|
D---------------------|

Play End Riff until end, then play:
G----|
D----|
A-55-|
D----|

Well, that's it!  Pretty cool song, not hard to play, and, even better, it's by Project! God Bless!


Текст, аккорды и табулатура для песни "One Armed Man", исполняет "Project 86".
Используемые в песне аккорды можно найти в разделе Как брать аккорды. Аккорды для шестиструнной гитары. Другие песни можно найти на нашем сайте, воспользовавшись алфавитным указателем вверху страницы.


 
Ошибка в тексте? Выделите ошибку и нажмите Ctrl+Enter