Трэк совершенно новый и пока что существует в концертном варианте,
   его мржно скачать на: www.theprodigy.ru
  

 Intro:          
 1 |--3-2-3-0-2-0-2-----|
 2 ----3----|
 3 ---------|

 With beats:
 4 |--4-4-4--2--2--2---4-4-4--2--2--2---4-4-4--2--2--2---7-7-7-6-6-6-----|
 5 |--4-4-4--2--2--2---4-4-4--2--2--2---4-4-4--2--2--2---7-7-7-6-6-6-----|
 6 |--2-2-2--0--0--0---2-2-2--0--0--0---2-2-2--0--0--0---5-5-5-4-4-4-----|

   One and a two to the three
   Give the trigger to me !
   One and a two to the three
   Give the trigger to me !
   
   Terrorist, with my head in the sky´s
   Trigger on the streets, down from the river
   You can´t run me, you can´t run me
   I gotta spit the venom... Spit the venom, Yeah !

   Shoot you down, gonna
   Shoot you down, gonna
   Shoot you down 
   With my head in the sky´s... 
   Trigger !

 1 |--1--0--1--0--1--0--1--0--1--0--1--0-----------------|
 2 |--3--3--3--3--3--3--3--3--3--3--3--3--2--0--2--------|
 3 |--3--3--3--3--2--2--2--2--3--3--3--2--2--0--2--1-----|          
 4 ---------------------------2--0--2--2-----|
 5 ------------------------------------2-----|
 6 ------------------------------------------|

 
    P.S. Огромное спасибо Фанклубу "Dirty Dozen" (www.theprodigy.ru) 
         за подобранный текст...
                                       Trigger


Текст, аккорды и табулатура для песни "Trigger", исполняет "Prodigy".
Используемые в песне аккорды можно найти в разделе Как брать аккорды. Аккорды для шестиструнной гитары. Другие песни можно найти на нашем сайте, воспользовавшись алфавитным указателем вверху страницы.


 
Ошибка в тексте? Выделите ошибку и нажмите Ctrl+Enter