Оригинал (обработанный Л.Хоулеттом на синтезаторе) на электрухе играется на 
более высоких ладах, а на аккустике звучит примерно так:


          Intro:
1---------------------------------------------------------------|
2---------------------------------------------------------------|
3---------------------------------------------------------------|
4---------------------------------------------------------------|
5|---0--0--3-0-3-2-0-2--------0--0--3-0-3-2-0-2-----------------------------|
6---------4--4--4------------------4--4--4----------------------|


 With speech:
1--------------------------------------|
2--------------------------------------|
3--------------------------------------|
4|----4-4-4-4-4-4-4-4-4-4-4------------------------|
5|----4-4-4-4-4-4-4-4-4-4-4------------------------|
6|----4-4-4-4-4-4-4-4-4-4-4------------------------|
      Breathe the preassure

1-----------------------------------------------------|
2-----------------------------------------------------|
3-----------------------------------------------------|
4|-----3--3--3--3---|----2--2--2--2----|---0--0--0----------------|
5|-----3--3--3--3---|----2--2--2--2----|---0--0--0----------------|
6|-----3--3--3--3---|----2--2--2--2----|---0--0--0----------------|
    Come play my      game I’ll test      ya…

1------------------------------------------|
2------------------------------------------|
3------------------------------------------|
4|-----5--5--5------|---6--6--6---|---7--7-------------|
5|-----5--5--5------|---6--6--6---|---7--7-------------|
6|-----5--5--5------|---6--6--6---|---7--7-------------|
    Psychosomatic        addict,     Insane

(Под остальной текст играется оригинально – по кругу.  Кто не помнит хит 
шестилетней давности – прослушайте еще раз, он того стоит.)

Breathe preassure,
Come play my game I’ll test ya.
Psycho,-somatic addict, insane
Come…play…my…game
Inhale, inhale, you’re the victim.
Come…play…my…game
Exhale, exhale, exhale.


Acoustic play:
1|----4--4---4-4----4----|----3----3----|----1----1-0----1----------------------|
2|----6--6---6-6----6----|----5----5----|----3----3-3----3----------------------|
3|----5--5---5-5----5----|----4----4----|----2----2-2----2----------------------|
4-------------------------------------------------------------------|
5-------------------------------------------------------------------|
6-------------------------------------------------------------------|


Текст, аккорды и табулатура для песни "Breathe", исполняет "Prodigy".
Используемые в песне аккорды можно найти в разделе Как брать аккорды. Аккорды для шестиструнной гитары. Другие песни можно найти на нашем сайте, воспользовавшись алфавитным указателем вверху страницы.


Слушать онлайн Breathe


The ProdigyBreathe на Яндекс.Музыке


 
Ошибка в тексте? Выделите ошибку и нажмите Ctrl+Enter