From: [email protected] (Pete Paluch)

BTAB: Primus - Wynona's Big Brown Beaver

G-7--7-----7--7-----7--7-----7--7--*|  --11-11----11-11----11-11----11-11--*|
D-0--0-----0--0-----0--0-----0--0--*|  ---0--0-----0--0-----0--0-----0--0--*|
A-----------------------------------|  -------------------------------------|
E-----------------------------------|  -------------------------------------|

      Whoooo   Hoo Hooo Hooo Hoo Hoo
G-7--7-----7--7-----7--7-----7--7--*|  -18-18-18-18-19-21-19-18------|
D-0--0-----0--0-----0--0-----0--0--*|  ---------------------------------|
A-----------------------------------|  ---------------------------------|
E-----------------------------------|  ---------------------------------|


G--------9--H10--P9--H10--------10--9-----------------14--------------19-|
D--0--0--------------------0--0-------10---0--0--/-15------0--0--/-17----|
A------------------------------------------------------------------------|
E------------------------------------------------------------------------|


G--------9--H10--P9--H10--------10--9-----------------14----------------|
D--0--0--------------------0--0-------10---0--0--/-15-----0-15-14-------|
A-----------------------------------------------------------------15-VV-|
E-----------------------------------------------------------------------|


G--------9--H10--P9--H10--------10--9-----------------14--------------19-|
D--0--0--------------------0--0-------10---0--0--/-15------0--0--/-17----|
A------------------------------------------------------------------------|
E------------------------------------------------------------------------|


G--------9--H10--P9--H10--------10--9------------------------|
D--0--0--------------------0--0-------10--/-15-12------------|
A-------------------------------------------------15-12-VV--|
E------------------------------------------------------------|

G----------------------------------*|     H  -  Hammer On   X  -  Dead Note
D--0--0-----0--0---X-0--0---X-0--0-*|     P  -  Pull Off    *'s-  Repeat
A-----------------------------------|     VV -  Vibrato
E-----------------------------------|     /  -  Slide Up
                                            -  Slide Down

G-------------------------------------------------|
D--0--0-----0--0-----0--0-3-2-3-3-0-0-3-2-3-3-0--0| Wynona's got herself etc..
A-------------------------------------------------|
E-------------------------------------------------|

Comments, suggestions, questions, etc..
[email protected]

It's close enough. Tough to hear Les with $20 headphones.

Feel free to put this on a btab site or web. Just leave my name
in the there.

BTW: PRIMUS SUCKS! :)

--
email: [email protected]




Текст, аккорды и табулатура для песни "Wynonas Big Brown Beaver", исполняет "Primus".
Используемые в песне аккорды можно найти в разделе Как брать аккорды. Аккорды для шестиструнной гитары. Другие песни можно найти на нашем сайте, воспользовавшись алфавитным указателем вверху страницы.


 
Ошибка в тексте? Выделите ошибку и нажмите Ctrl+Enter