Riff 1
      ^   ^ ^ ^       |                 | 
G|----5H6-6-6-7-------|-----------------|
D|----5---5-5-5-------|-----------------|
A|--------------------|-----------------|  
E|--------------------|-----------------|

Riff 2
     ^   ^ ^ ^   ^ ^ | ^   ^ ^ ^   ^ ^  | 
G|---5H6-6-6-7---x-x-|-x---x-x-x---x-x--|
D|---5---5-5-5---x-x-|-x---x-x-x---x-x--|
A|-------------------|------------------|
E|-------------------|------------------|

Riff 3
      ^   ^ ^ ^   ^ ^ | ^   ^ ^ ^   ^ ^ | 
G|----5H6-6-6-7---x-x-|-x---x-x-x---x---|
D|----5---5-5-5---x-x-|-x---x-x-x---x---|
A|--------------------|-----------------|
E|--------------------|---------------7| (slides to about 12)

Riff 4
      ^   ^ ^ ^   S   | S   S   S   S   |
G|----5H6-6-6-7-------|-----------------|
D|----5---5-5-5-------|-----------------|
A|--------------------|-----------------|
E|----------------2---|-3---2---4---5---| 
[yes the E string is right... everyone has like (E|----------------2---|-3---0---3---2---|) 
or some bullshit. I saw them live and thats how he played it.]

Riff 5
      ^       ^         ^       ^
G|----5-6-x-x-6-7-x-x-|-7-8-x-x-8-9-x-x-|   
D|----5-6-x-x-6-7-x-x-|-7-8-x-x-8-9-x-x-|
A|--------------------|-----------------|
E|--------------------|-----------------|  

      ^       ^         ^       ^
G|----9-8-x-x-8-7-x-x-|-7-6-x-x-6-5-----|
D|----9-8-x-x-8-7-x-x-|-7-6-x-x-6-5-----|
A|--------------------|-----------------|
E|--------------------|-----------------|

Riff 6
      ^   ^ ^ ^       
G|----5H6-6-6-7-------|-----------------|
D|----5---5-5-5-------|-----------------|
A|--------------------|-----------------|  
E|--------------------|-----------------|

Riff Order:

Riff 1 - 4x
Riff 2 - 4x
Riff 3 - 1x
Riff 4 - 4x
Riff 1 - 4x
Riff 4 - 4x
Riff 1 - 4x
Riff 5 - 4x
Riff 4 - 4x
Riff 1 - 4x
Riff 4 - 4x
Riff 1 - 4x
Riff 4 - 4x
Riff 6 - 1x

Thats about it... When i saw them, Les did some crazy ass solo. Claypool is the Bass god.

Any comments send them too [email protected]


Текст, аккорды и табулатура для песни "Too Many Puppies", исполняет "Primus".
Используемые в песне аккорды можно найти в разделе Как брать аккорды. Аккорды для шестиструнной гитары. Другие песни можно найти на нашем сайте, воспользовавшись алфавитным указателем вверху страницы.


 
Ошибка в тексте? Выделите ошибку и нажмите Ctrl+Enter