The Return of Sathington Willoughby
		-----------------------------------

(Dropped D)

	Intro
      <	  ^   >       
 G ||--x-x-x-x----||----x-x-x-x-x-x-x-----||
 D ||--x-x-x-x----||*---x-x-x-x-x-x-x-----||
 A ||--x-x-x-x--5-||*---x-x-x-x-x-x-x--4--||   
 D ||-------------||----------------------||

 G ||--x-x-x-x-x-x-x-----||
 D ||--x-x-x-x-x-x-x----*||
 A ||--x-x-x-x-x-x-x--5-*||
 D ||--------------------||

 G ||----7p-5h----5--------5p-7h---7p----||
 D ||----------7p----5p-7h---------------||
 A ||------------------------------------||
 D ||--0-------------------------x----0--||

	2nd time only

 G ||----7p-5h----5--------5p-7h---10----||
 D ||----------7p----5p-7h---------------||
 A ||------------------------------------||
 D ||--0-------------------------x----0--||

 G ||--------------------------------||
 D ||*------------------------------*||
 A ||*----5-3h-0-3h-------3-5h---5--*||
 D ||---0------------5-7h------0-----||


--------------------------------------------------------------------------------
E-mail me@ [email protected] 
My website@ http://www.geocities.com/jons_site/index.html


Текст, аккорды и табулатура для песни "The Return Of Sathington Willoughby", исполняет "Primus".
Используемые в песне аккорды можно найти в разделе Как брать аккорды. Аккорды для шестиструнной гитары. Другие песни можно найти на нашем сайте, воспользовавшись алфавитным указателем вверху страницы.


 
Ошибка в тексте? Выделите ошибку и нажмите Ctrl+Enter