South Park Theme - Primus

Hi here's the tab for the theme to South Park. I'm pretty certain it's right it's just really hard to play 
listen the original for the rhythm.

My Rig:
Squire Telecaster
Marshall 50 watt amp
Morley wah wah

My Favourite Bands:
Primus
Clutch
No Doubt

My Favourite guitar websites:
http://www.tabclawer.com    - good tab site
http://www.nodoubt.com   - no doubt's official site
http://www.guitarandbass.co.uk   - brilliant guitar lesson site


E||--------------9---------------9----------|
B||--13-13-13-13-13--13-13-13-13--------10--|
G||---------------------------------11--12--|
D||-----------------------------------------|
A||-----------------------------------------|
E||-----------------------------------------|

--------------------------0----|----------------------------|
--10-10-10--9-9-9--7/-10--0----|----------------------------|
--12h11-12--9-9-9--7-----------|----11---x-11---11--x---11--|
-------------------------------|----10-----10---10------10--|
-------------------------------|----------------------------|
-------------------------------|----------------------------|

--------------------------|----------------------------------|
----------8-----8---------|----------------------------------|
----11----11----11----11/-|--14--14--14~--14/17--17--17~--17/|
----10----------------10/-|--13--13--13~--13/16--16--16~--16/|
--------------------------|----------------------------------|
--------------------------|----------------------------------|

----------------------------------|-----------------------------|
----------------------------------|-----------------------------|
--14--14--14~--14/17--17--17~--17/|--x--11---x-11----11---x-11--|
--13--13--13~--13/16--16--16~--16/|--x--10-----10----10-----10--|
----------------------------------|-----------------------------|
----------------------------------|-----------------------------|

---------------------------|----------------------------------|
---------------------------|----------------------------------|
----11h0---11----11----11/-|--14--14--14~--14/17--17--17~--17/|
----10-----10----10----10/-|--13--13--13~--13/16--16--16~--16/|
---------------------------|----------------------------------|
---------------------------|----------------------------------|

--------------------------------|
--------------------------------|
--14--14--14~--14/17--17--17~---|
--13--13--13~--13/16--16--16~---|
--------------------------------|
--------------------------------|

--------------9---------------9-----------|
--13-13-13-13-13--13-13-13-13-13------10--|
----------------------------------11------|
------------------------------------------|
------------------------------------------|
------------------------------------------|

--------------9---------------12-12-13-13-12-12-|
--13-13-13-13-13--13-13-13-13-------------------|
------------------------------------------------|
------------------------------------------------|
------------------------------------------------|
------------------------------------------------|

--11--11--11--11/-14--14--14~--14/|
--10--10--10--10/-13--13--13~--13/|
----------------------------------|
----------------------------------|
----------------------------------|
----------------------------------|

--11--11--11---11/14--14--14--14/-|
--10--10--10---10/13--13--13--13/-|
----------------------------------|
----------------------------------|
----------------------------------|
----------------------------------|

-----9-9-----9---------------9----------|
--13---13-13-13--13-13-13-13--------10--|
--------------------------------11------|
----------------------------------------|
----------------------------------------|
----------------------------------------|

--------9--9--9--9---8--------||
--13-13-8--10-10-10--8--------||
--------8--11-11-7---8--------||
--------8---------------------||
------------------------------||
------------------------------||


Текст, аккорды и табулатура для песни "South Park Theme", исполняет "Primus".
Используемые в песне аккорды можно найти в разделе Как брать аккорды. Аккорды для шестиструнной гитары. Другие песни можно найти на нашем сайте, воспользовавшись алфавитным указателем вверху страницы.


 
Ошибка в тексте? Выделите ошибку и нажмите Ctrl+Enter