Artist: Primus
Song: Pilcher's Squad
Album: Animals Should Not Try to Act Like People EP (2003)
Tuning: E-A-D-G
Notes:
P - Pop
S - Slap
v - Downstroke with fingernails

These are the riffs, listen to the song to figure out where they go

Intro: 
G|-------|
D|--52--|Les uses his whammy bar on this but you can do this
A|-------|Slide very fast
E|-------|
    P 


Verse:
   v v    v v v    v
G|-5-5h6--x-5-5h6--x--|
D|-5-5h6--x-5-5h6--x--|
A|--------------------|
E|--------------------|


Chorus:
G|---------------------------------|
D|-----5-5-------------4-4---------|
A|-3-3---------4-4-2-2---------3-3-|
E|---------2-2-------------1-1-----|
   S S S S S S S S S S S S S S S S


Guitar Solo:
   v v    v v v    v
G|-7-7h8--x-7-7h8--x--|
D|-7-7h8--x-7-7h8--x--|
A|--------------------|
E|--------------------|


Outro:
    v
G|--0--|
D|--0--| With Whammy?
A|-----|
E|-----|


Текст, аккорды и табулатура для песни "Pilchers Squad", исполняет "Primus".
Используемые в песне аккорды можно найти в разделе Как брать аккорды. Аккорды для шестиструнной гитары. Другие песни можно найти на нашем сайте, воспользовавшись алфавитным указателем вверху страницы.


 
Ошибка в тексте? Выделите ошибку и нажмите Ctrl+Enter