-----------------------------------------------------------------------------
		     Master Of Puppets - Primus
-----------------------------------------------------------------------------
Tabbed by: Kotie A.
E-mail: [email protected]

Tuning: Standard (EADGBe)

There's hardly a difference between the Primus guitar part and the Metallica
part (besides the fact that guitar is playing bass line). Anyways, use with
heavy distortion.

| /  slide up
|   slide down
| () lightly hit string

Intro:
e|--------------------------------------------------------------------|
B|--------------------------------------------------------------------|
G|- [Bass ---------7-6-5--- [Bass ----------7-6-5--- [Bass------------|
D|--- Plays] 2-2---7-6-5------ Plays] 2-2---7-6-5------ Plays] -------|
A|-----------2-2---5-4-3--------------2-2---5-4-3---------------------|
E|-----------0-0----------------------0-0-----------------------------|

e|-(5)-------------------------------------|
B|------------------ [Long Pick Slide] ----|
G|----------7-6-5---xxxxxxxx/xxxxxxxxxx---|
D|----2-2---7-6-5---xxxxxxxx/xxxxxxxxxx---|
A|----2-2---5-4-3---xxxxxxxx/xxxxxxxxxx---|
E|----0-0----------------------------------|

e|---------------------------------------------------------------|
B|---------------------------------------------------------------|
G|- [Bass ------------------------ [Bass ------------------------|
D|---- Plays] ----------------------- Plays] --------------------|
A|------------54----54----54-2------------54----54----54---|
E|------------32-0--32-0--32-0------------32-0--32-0--32---|

e|------------------------------------------------------------------|
B|------------------------------------------------------------------|
G|--------------------------------------------------------------4---|
D|--------------------------------------------------------------4---|
A|-----2-----3-----4-----3-----2-2------2-----3-----4-----3-----2---|
E|-0-1---0-1---0-1---0-1---0-1------0-1---0-1---0-1---0-1---0-1-----|

e|--------------------------------------------------------------------|
B|--------------------------------------------------------------------|
G|--------------------------------------------------------------------|
D|--------------------------------------------------------------------|
A|-----2-----3-----4-----3-----2-2-------2-----3------54--54--54---|
E|-0-1---0-1---0-1---0-1---0-1-------0-1---0-1---0-1--32--32--32---|

e|------------------------------------------------------------------|
B|------------------------------------------------------------------|
G|--------------------------------------------------------------4---|
D|--------------------------------------------------------------4---|
A|-----2-----3-----4-----3-----2-2------2-----3-----4-----3-----2---|
E|-0-1---0-1---0-1---0-1---0-1------0-1---0-1---0-1---0-1---0-1-----|

e|------------------------------------------------------------------------|
B|------------------------------------------------------------------------|
G|------------------------------------------------------------------------|
D|------------------------------------------------------------------------|
A|-----2-----3-----4-----3-----2-2-------2-----3------54----54----54---|
E|-0-1---0-1---0-1---0-1---0-1-------0-1---0-1---0-1--32-0--32-0--32---|


e|------------------------------------| 
B|------------------------------------|
G|----------------------- [Bass ------| Note: You can do a pick slide
D|------------------------- Outro] ---|      at end of outro, if
A|-54----54----54--2---------------|       you want. Primus doesn't,  
E|-32-0--32-0--32--0---------------|       but it sounds cool.

When you listen to the song, the guitar's distortion sounds heavy and a bit
sloppy, so if you want to get that effect, either replace every palm mute with
a left hand mute on heavy distortion (they don't do it like that, but it sounds
pretty rough and makes the song a bit easier for beginners), or palm mute very
lightly.

Later - Kotie


Текст, аккорды и табулатура для песни "Master Of Puppets", исполняет "Primus".
Используемые в песне аккорды можно найти в разделе Как брать аккорды. Аккорды для шестиструнной гитары. Другие песни можно найти на нашем сайте, воспользовавшись алфавитным указателем вверху страницы.


 
Ошибка в тексте? Выделите ошибку и нажмите Ctrl+Enter