Artist: Primus
Song: Making Plans for Nigel
Album: Miscellaneous Debris (1992)
Tuning: E-A-D-G
Notes: This is just a rough outline of the song Les does ALOT of variations
throughout this excellent song.  Add lots of pops, chords, and fills.  
This can be played on a 4-string but it does need a low B-string for 
the bass solo.  

S - Slap

Intro       Verse
G|---------|---------------------------------------------------------------|
D|---------|---------------------------------------------------------------|
A|---------|------------------7-7-7-7-7-7-7-7-7-7-7------------------------|
E|--15/////|3-3-3-3-3-3-3-3-3-----------------------7-7-7-7-7-7-7-7-7-7-7--|
    SSSSSSS S S S S S S S S S S S S S S S S S S S S S S S S S S S S S S S


Chorus:
G|-------------------------------------------------------------------------|
D|-------------------------------------------------------------------------|
A|-------------------------------------------------------------------------|
E|---5-5-5-5-5-5-5-5-5-3-3-3-3-3-3-3-3-3-2-2-2-2-2-2-2-2-2-0-0-0-0-0-0-0-0-|
     S S S S S S S S S S S S S S S S S S S S S S S S S S S S S S S S S S S

G|-----------------------|
D|-----------------------|
A|----5-5-5-5-5-5-5-5-5--|
E|-----------------------|
      S S S S S S S S S 

Interlude
G|-------------------------------------------------------------------------|
D|-------------------------------------------------------------------------|
A|---7-7-7-7-7-7-7-7-7-7-7-8-8-8-8-8-8-------------------------------------|
E|-------------------------------------8-8-8-8-8-8-8-8-8-3-3-3-3-3-3-3-3-3-|
     S S S S S S S S S S S S S S S S S S S S S S S S S S S S S S S S S S S

G|----------------------------------------------------------------------|
D|----------------------------------------------------------------------|
A|-----------------------7-7-7-7-7-7-7-7-7-7-7--------------------------|
E|---1-1-1-1-1-1-1-1-1-1-----------------------3-3-3-3-3-3-3-3-3-3-3-3--|
     S S S S S S S S S S S S S S S S S S S S S S S S S S S S S S S S S 
 
Outro/Bass Solo
G|-------------------------------------------------------------------------|
D|-------------------------------------------------------------------------|
A|-------------------------------------------------------------------------|
E|---3-3-3-3-3-3-3-3-3-3-3-0-0-0-0-0-0-0-0-0-0-0---------------------------|
B|-----------------------------------------------0-0-0-0-0-0-0-0-0-0-0-0-0-|
     S S S S S S S S S S S S S S S S S S S S S S S S S S S S S S S S S S S

  Use a whammy bar to add vibrato to all of these notes
G|----------------------------------------------------------------|
D|----------------------------------------------------------------|
A|-------------------7-7-7-7-7-7-7-7-7-7-7------------------------|
E|-3-3-3-3-3-3-3-3-3-----------------------7-7-7-7-7-7-7-7-7-7-7--|
   S S S S S S S S S S S S S S S S S S S S S S S S S S S S S S S


Текст, аккорды и табулатура для песни "Making Plans For Nigel", исполняет "Primus".
Используемые в песне аккорды можно найти в разделе Как брать аккорды. Аккорды для шестиструнной гитары. Другие песни можно найти на нашем сайте, воспользовавшись алфавитным указателем вверху страницы.


 
Ошибка в тексте? Выделите ошибку и нажмите Ctrl+Enter