Primus - Laquerhead
Standard 4 string tuning (E A D G)

Wel it took me long enough but i finally figured how to play this song after watching Les play it a million times in a row.  First the EQ settings have to be really low.  Boost the bass a lot and take out the midrange and treble until the number 2 setting on your amp.  Second, explaining how to play this is not the easiet thing in the world.  On the A string slap it twice, muted with your hand over the 3rd fret then pull-off and hold your finger over the 2cnd fret and on the G string, hold the string in between your second knuckle and pop it hard.  I know its hard to understand that but its right. also les uses a lil bit of overdrive on the verses.  For the lazy people who didn't read this or for the people who didn't understand my explaination of this song, i tried my best to tab it out.

Intro + Verses 
G|-------2p(harmonic)-|-------2p(harmonic)--------| if u don't get the rite
D|--------------------|---------------------------| sound from the harmonic
A|--Xs-Xs-------------|--Xs-Xs-------------3------| just keep trying, u'll 
E|--------------------|---------------------2h3h2-| get it eventually
 
Pre-Chorus 
G|--*5*--*8*--|
D|--*5*--*8*--|
A|--*3*--*6*--|
E|------------|

Chorus 
G|------------5s-------|
D|---------------5s-Xs-|
A|------------3s-------|
E|--0s-h2s-2s----3s-Xs-|
 
Pre-Second Verse
G|----------------2p(harmonic)-|
D|-----------------------------|
A|--Xs-Xs-Xs-Xs-Xs-------------|
E|-----------------------------|

Verse
G|-------2p(harmonic)-|-------2p(harmonic)--------| 
D|--------------------|---------------------------| 
A|--Xs-Xs-------------|--Xs-Xs-------------3------| 
E|--------------------|---------------------2h3h2-| 

Bridge (Slap then slide with thumb) 
G|-----------|
D|-----------|
A|-----------|
E|--3s-18s/3-|
 
Second Chorus 
G|-----------7h9p7----7p-|
D|-----------------------|
A|--Xs-7s-7s-------Xs-5S-|
E|-----------------------|


Pre-Chorus 
G|--*5*--*8*--|
D|--*5*--*8*--|
A|--*3*--*6*--|
E|------------|


Chorus 
G|------------5s-------|-------5s-|
D|---------------5s-Xs-|----------|
A|------------3s-------|-------3s-|
E|--0s-h2s-2s----3s-Xs-|--2s-2s---|

Outro
G|--*5*--|
D|--*5*--|
A|--*3*--|
E|-------|


Текст, аккорды и табулатура для песни "Lacquer Head", исполняет "Primus".
Используемые в песне аккорды можно найти в разделе Как брать аккорды. Аккорды для шестиструнной гитары. Другие песни можно найти на нашем сайте, воспользовавшись алфавитным указателем вверху страницы.


 
Ошибка в тексте? Выделите ошибку и нажмите Ctrl+Enter