INTRO (2 раза):
E---------------------------------------|
H---------------------------------------|
G|--5------------------------------5----------------|
D|-------5-6----5--6----5--8--6---------5-6----8-5--|
A---------------------------------------|
E---------------------------------------|

КУПЛЕТ 1:
(перебором)
Am                   Dm             E           Am
Вновь о том как день уходит с земли ты негромко спой мне
C                    G            E             Am
Этот день быть может где-то вдали мы не однажды вспомним
(по тоникам)
Am                      Dm           E          Am
Вспомним как прозрачный месяц плывет над ночной прохладой
Dm          C               E          Am
Лишь о том, что все пройдет вспоминать не надо
(квинтами)
D5          C5              E5         A5
Лишь о том, что все пройдет вспоминать не надо

ПРИПЕВ:
A5  E5        G5         C5
Все пройдет - и печаль и радость
A5  E5        G5          C5
Все пройдет - так устроен свет
A5  E5       G5            C5
Все пройдет, только верить надо,
D5  C5     E5            A5
Что любовь не проходит - нет

INTRO (1 раз)

КУПЛЕТ 2:
Спой о том как вдаль идут корабли не сдаваясь буре
Спой о том, что ради нашей любви весь этот мир придуман
Спой о том как биться не устает сердце с сердцем рядом
Лишь о том, что все пройдет вспоминать не надо | 2 раза

ПРИПЕВ

СОЛО:
E|-------5----------------------------------------------------------------------------------------|
H|--5/7-----7--7----5/7------5----------------3--5--3----1-------1--------------------------------|
G----------------------2/4--2h4------------------3--------2b4--2b4--2----------2h4p2--|
D---------------------------------------------------------------------2h4--2h4--------|
A-------------------------------------------------------------------------------------|
E-------------------------------------------------------------------------------------|

E-------------------------------------------------------------------------------------|
H-------------------------------------------------------------------------------------|
G|--9--7h9--7h9p7--7--5h7--5h7p5--10--8-10-8---10b12---8--10--8----8---10b12b10----7-9-11-9-7-9-7-|
D--------------------------------10--------10-----------10---------10-----------------|
A-------------------------------------------------------------------------------------|
E-------------------------------------------------------------------------------------|

E-------------------------------------------------------------------------------------|
H-------------------------------------------------------------------------------------|
G|--5-7-9-7-5-7-5----9--7-----7--9--11b12--9--7--9--7--7--11b12


Текст, аккорды и табулатура для песни "Все пройдет", исполняет "Приключения Электроников".
Используемые в песне аккорды можно найти в разделе Как брать аккорды. Аккорды для шестиструнной гитары. Другие песни можно найти на нашем сайте, воспользовавшись алфавитным указателем вверху страницы.


 
Ошибка в тексте? Выделите ошибку и нажмите Ctrl+Enter