Вступление:

    G#m        D#m                E          F#    
e||--------------|--------------|--------------|--------------|
H||--------------|--------------|--------------|--------------|
G||--------------|--------------|--------------|--------------|
D||---9--8--6----|-----------8--|---9--8--6----|-----------8--|
A||------------9-|--9--9-6-9----|------------9-|--9--9-6-9----|
E||--------------|--------------|--------------|--------------|

  G#m        D#m                E         F#
|--------------|--------------|-------------|--------------||
|--------------|--------------|-------------|--------------||
|---8--6--4----|-----------6--|---8--6--4---|-----------6--||
|---9--8--6--8-|--8--8-4-8-8--|---9--8--6-8-|--8--8-4-8-8--||
|------------9-|--9--9-6-9----|-----------9-|--9--9-6-9----||
|--------------|--------------|-------------|--------------||


G#m                      F#                     C#
Полный ход и снова волны уплывают в даль за кормой.
Прочь тревоги, англичанка, возвращайся с богом домой.
 H        F#         E
Каменный мост над водой
  H             F#      G#m
Спит, словно стражник немой.

	              E   F#            D#m              G#m
	London, good bye,    Лондон, прощай, - я здесь чужой.
	London, good bye, Лондон, прощай, - пора домой,
	London, good bye, Лондон, прощай, - я здесь чужой.
	              E   F#            D#m            C#              G#m
	London, good bye,    Лондон, прощай, - пора домой, Лондон, гуд бай!

Проигрыш = вступление

Сотни лет часы на башне созывали лордов на пир,
А теперь Big Ben на память нам подарит сувенир.
Волны холодной реки
Наши хоронят мечты.

	Припев

Проигрыш: E | F#  | G#m | G#m
          E | D#m | G#m | G#m
          E | F#  | D#m | G#m
          E | F#  | D#7 | D#7

	Припев

Кода = вступление


Текст, аккорды и табулатура для песни "Лондон, прощай", исполняет "Приключения Электроников".
Используемые в песне аккорды можно найти в разделе Как брать аккорды. Аккорды для шестиструнной гитары. Другие песни можно найти на нашем сайте, воспользовавшись алфавитным указателем вверху страницы.


 
Ошибка в тексте? Выделите ошибку и нажмите Ctrl+Enter