Am
На трибунах становится тише,
      A7             Dm
Тает быстрое время чудес.
                          E      F
До свиданья, наш ласковый Ми-и-и-ша,
      Dm            E         Am
Возвращайся в свой сказочный лес.

Не грусти, улыбнись на прощанье,
Вспоминай эти дни, вспоминай.
Пожелай исполненья желаний,
Новой встречи нам всем пожелай.

проигрыш
Тут тоже соло саксофона исполняется на гитаре.

E|----------------------------------------|
H|--------------------------10-8----------|
G|--9-10-12----9-------9-10------10-10-9--|
D|----------10---12-12--------------------|
A|----------------------------------------|
E|----------------------------------------|

E|----------------------------------------|
H|----------13-12-10-12-10-8-10-8---------|
G|--9-10-12-----------------------10------|
D|-----------------------------------9-10-|
A|----------------------------------------|
E|----------------------------------------|

Пожелаем друг другу успеха,
И добра, и любви без конца.
Олимпийское звонкое эхо
Остается в стихах и сердцах.

До свиданья, Москва, до свиданья,
Олимпийская сказка прощай.
Пожелай исполненья желаний,
Новой встречи друзьям пожелай.

     C         G
Расстаются друзья,
     G7            C
Остается в сердце нежность.
         C    F     E D
Будем песню беречь,
       C          G7      C
До свиданья, до новых встреч.
Будем песню беречь,
До свиданья, до новых встреч.



Текст, аккорды и табулатура для песни "До свидания, Москва", исполняет "Приключения Электроников".
Используемые в песне аккорды можно найти в разделе Как брать аккорды. Аккорды для шестиструнной гитары. Другие песни можно найти на нашем сайте, воспользовавшись алфавитным указателем вверху страницы.


 
Ошибка в тексте? Выделите ошибку и нажмите Ctrl+Enter