Artist- Pressure 4-5
Song- Stares
Tabber- Iconoclast
Tuning- Drop C

Intro- guitar 1 (also verse)
------------------------------------------------------------
------------------------------------------------------------
------------------------------------------------------------
-8------8-------7-------7-------8------8-8/10-7-------7-----
------------------------------------------------------------
--0-0-0---0-0-0---0-0-0---0-0-0--0-0-0----------0-0-0--0-0-0

Intro- guitar 2 (comes in with singing)
-10-12-12-10-10-12-12-10------------
------------------------------------
------------------------------------
------------------------------------
------------------------------------
------------------------------------

Prechorus
------------------------------------------------------------
------------------------------------------------------------
------------------------------------------------------------
8-0-0-0-8-0-0-0-7-0-0-0-7-0-0-0-8-0-0-0-8-8/10-7-0-0-0-7-000
8-0-0-0-8-0-0-0-7-0-0-0-7-0-0-0-8-0-0-0-8-8/10-7-0-0-0-7-000
8-0-0-0-8-0-0-0-7-0-0-0-7-0-0-0-8-0-0-0-8-8/10-7-0-0-0-7-000

------------------------------------------------------------
------------------------------------------------------------
------------------------------------------------------------
-8-0-0-0-8-0-0-7-0-0-0-7-0-0-8-0-0-0-7-7/10-7-0-0-0-7-0-0---
-8-0-0-0-8-0-0-7-0-0-0-7-0-0-8-0-0-0-7-7/10-7-0-0-0-7-0-0---
-8-0-0-0-8-0-0-7-0-0-0-7-0-0-8-0-0-0-7-7/10-7-0-0-0-7-0-0---
           pm.           pm.                          pm.   

Verse- guitar 2
-------------6---------------
-3h4-3h4-3h4---4p3h4---------
-----------------------------
-----------------------------
-----------------------------
-----------------------------

Chorus- guitar 1             | Every 2nd time play this
-----------------------------|---------
-----------------------------|---------
-----------------------------|-9-------
-0-0-0-7-7-7-3-3-3-8-8-10----|---10----
-0-0-0-7-7-7-3-3-3-8-8-10----|------8--
-0-0-0-7-7-7-3-3-3-8-8-10----|---------

Chorus- guitar 2
-------5------------------------------5-
-----6----------------5-6-------5-5-5---
-7-9-----7-5-5----7-5-----7-7-7---------
----------------------------------------
----------------------------------------
----------------------------------------

Bridge and outro- guitar 1
-----------------------------
-----------------------------
---5---5---------------------
-3-5-3-5---------------------
-3-3-3-3---------------------
-3---3-----------------------

2nd bridge
-------------|-------------------------------
-------5-5-5-|-------------------------------
-------x-x-x-|-------------------------------
-3-3-3-5-5-5-|-0-0-0-2-2-2-3-3-3-7-7-7-------
-3-3-3-3-3-3-|-0-0-0-2-2-2-3-3-3-7-7-7-------
-3-3-3-------|-0-0-0-2-2-2-3-3-3-7-7-7-------

-------------------------------------------
-------------------------------------------
-7-7-7-5-5-5-9-9-9-10-10-10----------------
-7-7-7-5-5-5-9-9-9--8--8--8--0-0-0-2-2-2-3-
-5-5-5-3-3-3-7-7-7--8--8--8--0-0-0-2-2-2-3-
-----------------------------0-0-0-2-2-2-3-

Outro- 2nd guitar
-----------------------------
---------------------5-------
-----5-----5---5---5---5-----
-3-3---3-3---3---3-----------
-----------------------------
-----------------------------

Last chord is just an open power chord (000xxx)

Enjoy.


Текст, аккорды и табулатура для песни "Stares", исполняет "Pressure 4-5".
Используемые в песне аккорды можно найти в разделе Как брать аккорды. Аккорды для шестиструнной гитары. Другие песни можно найти на нашем сайте, воспользовавшись алфавитным указателем вверху страницы.


 
Ошибка в тексте? Выделите ошибку и нажмите Ctrl+Enter