Pressure 4-5
Melt Me Down
Tabbed by: [email protected]
Tuning : drop C (tune one full step down and then tune like drop d)
Just follow it straight through and you should do fine.

Rhythm fig.1 Gtr.1
|--------------------------------------|
|--------------------------------------|
|--------------------------------------|X 2
|--------------------------------------|
|--------------------------------------|
|5-8-0-5-7-0-7-0-8-0-0-5-7-0-3-0-------|

Rhythm fig.2 Gtr.1
|-----------------------------------------|
|-----------------------------------------|
|-----------------------------------------|X 1
|-----------------------------------------|
|-----------------------------------------|
|5-h-85-8-0-5-7-0-7-0-8-0-0-5-7-0-3-0-----|

Rhythm fig.3 Gtr.1
|-------------------------------------|
|-------------------------------------|
|-------------------------------------|X 1
|-------------------------------------|
|-------------------------------------|
|5-8-0-5-7-0-7-0-8-0-8-8-0-5-7--------|

Rhythm fig.1 Gtr.1 (palm muted)
|--------------------------------------|
|--------------------------------------|
|--------------------------------------|X 7
|--------------------------------------|
|--------------------------------------|
|5-8-0-5-7-0-7-0-8-0-0-5-7-0-3-0-------|

Rhythm fig.3 Gtr.1 (palm muted)
|-------------------------------------|
|-------------------------------------|
|-------------------------------------|X 1
|-------------------------------------|
|-------------------------------------|
|5-8-0-5-7-0-7-0-8-0-8-8-0-5-7--------|

Rhythm fig.4 Gtr.2 (palm muted behind Gtr.1 verse 1)
|----------------------------------------|
|----------------------------------------|
|----------------------------------------|X 8
|---------7-7-7-78-3-3-3-3--------------|
|-5-5-5-5-5-5-5-5---1-1-1-1-3-3-3-3------|
|-5-5-5-5-------------------3-3-3-3-8---|

Chorus
|------------------------------------|
|------------------------------------|
|------------------------------------|X 2
|-5-5--5-5--0-0--0-0--8-8--3-3--77---|
|-5-5--5-5--0-0--0-0--8-8--3-3--77---|
|-5-5--5-5--0-0--0-0--8-8--3-3--77---|

Rhythm fig.1 Gtr.1
|--------------------------------------|
|--------------------------------------|
|--------------------------------------|X 2
|--------------------------------------|
|--------------------------------------|
|5-8-0-5-7-0-7-0-8-0-0-5-7-0-3-0-------|

Rhythm fig.1 Gtr.1 (palm muted)
|--------------------------------------|
|--------------------------------------|
|--------------------------------------|X 3
|--------------------------------------|
|--------------------------------------|
|5-8-0-5-7-0-7-0-8-0-0-5-7-0-3-0-------|

Rhythm fig.3 Gtr.1 (palm muted)
|-------------------------------------|
|-------------------------------------|
|-------------------------------------|X 1
|-------------------------------------|
|-------------------------------------|
|5-8-0-5-7-0-7-0-8-0-8-8-0-5-7--------|

Chorus
|------------------------------------|
|------------------------------------|
|------------------------------------|X 2
|-5-5--5-5--0-0--0-0--8-8--3-3--77---|
|-5-5--5-5--0-0--0-0--8-8--3-3--77---|
|-5-5--5-5--0-0--0-0--8-8--3-3--77---|

Bridge fig.1 w/ fill.1                              (strummed)
|--------------------------------------------------|--------------|
|--------------------------------------------------|----3---------|
|-----------7------3-------------------7------3----|-3--2---------|X 1
|----5----7------3--------3----5----7------3----3-|-3--2---------|
|--5----5------1--------3----5----5------1------3-|-1--0---------|
|5--------------------3----5--------------------3-|--------------|

Bridge fig.2
|----------------------|-------------------------------------------|
|----------------------|-------------------------------------------|
|----------------------|-------------------------------------------|X 2
|-111--111—-1113--111-|-111--111-1113-5-5-7-8-5-5—5-5-7-8-5-5----|
|-111--111—-1113--111-|-111--111-1113-5-5-5-5-5-5—5-5-5-5-5-5----|
|-111--111—-1113--111-|-111--111-1113-5-5-5-5-5-5-5-5-5-5-5-5----|


Rhythm fig.1 Gtr.1
|--------------------------------------|
|--------------------------------------|
|--------------------------------------|X 1
|--------------------------------------|
|--------------------------------------|
|5-8-0-5-7-0-7-0-8-0-0-5-7-0-3-0-------|

Rhythm fig.3 Gtr.1
|-------------------------------------|
|-------------------------------------|
|-------------------------------------|X 1
|-------------------------------------|
|-------------------------------------|
|5-8-0-5-7-0-7-0-8-0-8-8-0-5-7--------|

Rhythm fig.1 Gtr.1 (palm muted)
|--------------------------------------|
|--------------------------------------|
|--------------------------------------|X 3
|--------------------------------------|
|--------------------------------------|
|5-8-0-5-7-0-7-0-8-0-0-5-7-0-3-0-------|

Rhythm fig.3 Gtr.1 (palm muted)
|-------------------------------------|
|-------------------------------------|
|-------------------------------------|X 1
|-------------------------------------|
|-------------------------------------|
|5-8-0-5-7-0-7-0-8-0-8-8-0-5-7--------|

Chorus
|------------------------------------|
|------------------------------------|
|------------------------------------|X 2
|-5-5--5-5--0-0--0-0--8-8--3-3--77---|
|-5-5--5-5--0-0--0-0--8-8--3-3--77---|
|-5-5--5-5--0-0--0-0--8-8--3-3--77---|

Bridge fig.1 w/ fill.2                            
|--------------------------------------------------|--------------|
|--------------------------------------------------|--------------|
|-----------7------3-------------------7------3----|--7----------|
|----5----7------3--------3----5----7------3----3-|--7----------|
|--5----5------1--------3----5----5------1------3-|--7----------|
|5--------------------3----5--------------------3-|--------------|

Outro
|------------------------------------------------------|
|------------------------------------------------------|
|------------------------------------------------------|X 2
|-555-555-555x/1--555-555-555x/1-----------------------|
|-555-555-555x/1--555-555-555x/1-----------------------|
|-555-555-555x/1--555-555-555x/1-----------------------|


Текст, аккорды и табулатура для песни "Melt Me Down", исполняет "Pressure 4-5".
Используемые в песне аккорды можно найти в разделе Как брать аккорды. Аккорды для шестиструнной гитары. Другие песни можно найти на нашем сайте, воспользовавшись алфавитным указателем вверху страницы.


 
Ошибка в тексте? Выделите ошибку и нажмите Ctrl+Enter