Artist- Pressure 4-5
Song- Beat the world
Tabber- Iconoclast

Intro (delay)
d|------------------------------------|
a|------------------------------------|
f|---5-7---5-4------------------------|
c|------------------------------------|
g|-5-----5----------------------------|
C|------------------------------------|

Intro part 2, also prechorus

d|-------------------------------------|
a|-------------------------------------|
f|-------------------------------------|
c|-0-3-0-3-0-3-3-3-6-0-3-0-3-0-3-------|
g|-0-3-0-3-0-3-3-3-6-0-3-0-3-0-3-5h6p5-|
C|-0-3-0-3-0-3-3-3-6-0-3-0-3-0-3-------|

After repeating that a few times go...

d|----------------------------------------|
a|----------------------------------------|
f|-3-3-3-3-5-5-5--------------------------|
c|-3-3-3-3-5-5-5-0------------------------|
g|-1-1-1-1-3-3-3-0------------------------|
C|---------------0------------------------|

Verse (it comes in pretty late in the verse)
d|---------------------------------------------|
a|---------------------------------------------|
f|---5h7p5-------------------5h7p5-------7h8p7-|
c|-----------3-3-3-3-6-6-6-----------3---------|
g|-5-------5---------------5-------5---5-------|
C|---------------------------------------------|

Chorus
d|---------------------------------------------|
a|---------------------------------------------|
f|-3-3-3-5-------------------------------------|
c|-3-3-3-5-6-0-3-0-3-0-3-1---------------------|
g|-1-1-1-3-6-0-3-0-3-0-3-1---------------------|
C|---------6-0-3-0-3-0-3-1---------------------|

Bridge
d|---------------------------------------|
a|-----------8-8-----------8-8-----------|
f|-3-3-3-3-3-x-x-----------x-x-----------|
c|-3-3-3-3-3-5-5-5-5-5-5-5-5-5-----------|
g|-1-1-1-1-1-----5-5-5-5-5---------------|
C|---------------5-5-5-5-5---------------|

At the end of bridge
d|--------------------------------------------------|
a|--------------------------------------------------|
f|-7-10-12---------5-5-5-5-5-5-5--------------------|
c|-x--x--x-0-0-0-0-x-x-x-x-x-x-x--------------------|
g|-5--8-10-0-0-0-0-3-3-3-3-5-5-5--------------------|
C|---------0-0-0-0----------------------------------|

Coming next- Pieces, Stares, and These Hands


Текст, аккорды и табулатура для песни "Beat The World", исполняет "Pressure 4-5".
Используемые в песне аккорды можно найти в разделе Как брать аккорды. Аккорды для шестиструнной гитары. Другие песни можно найти на нашем сайте, воспользовавшись алфавитным указателем вверху страницы.


 
Ошибка в тексте? Выделите ошибку и нажмите Ctrl+Enter