StanDaRd TunNing. 
TabBed by StevEn
Ug screen name:RaTm4ever
I HoPe Ug PUtS ThIS TAb In BeCAuSE It TooK mE A LoNG TiMe To WrItE it.

VeRsE...
e|---5--------9---12--9--------5--5----9------12------------
B|------7-5---10--10-----10----5----5--10---------9---------
G|---6--6----------------------6-----------9---------10-----
D|----------------------------------------------------------
A|----------------------------------------------------------
E|5--------------------------5------------------------------

e|--(5)-----9---12--9---9--9--9--9--9--9--9--9--9--9--9--9--
B|5--7--5/--10------10--10-10-10-10-10-10-10-10-10-10-10-10-
G|6---------------------9-----------9-----------9-----------
D|7---------------------------------------------------------
A|----------------------------------------------------------
E|----------------------------------------------------------

e|9---9---9-------5----------------5------------------------
B|10--10--10------5-----------7-5------------7-7-7-7-7-7----
G|9---9---9-------5--5--------5-------5------5-5-5-5-5-5----
D|----------------4----4---------------------4-4-4-4-4-4----
A|-------------5-----------5--------------5-----------------
E|----------------------------------------------------------

e|-------------7--7--7--7----9--7--7-----7--7--7--7--7--7--7
B|5----7--5----7--7--7--7----7--7--7-----7--7--7--7--7--7--7
G|5----5--5----7--7--7--7----7--7--7-----7--7--7--7--7--7--7
D|4------------------------6--------------------------------
A|---5-------7-------------7----------7---------------------
E|----------------------------------------------------------

e|7--7----5--------5----------------------------------------|
B|7--7-------7--5-------7--5--------------------------------|
G|7--7----6--6--------6-------6-----------------------------|
D|----------------------------------------------------------|
A|----------------------------------------------------------|
E|------5----------5-------------5--------------------------|

SoLo
                                  v--bend half step
e|--------------------------------v--------------------------
B|------------5--3--2--3/5--7--5--7-----5--------------------
G|------------6--4--2--4/6----------------7--6--6--4---------
D|---------------------------------------------------7--6--5-
A|-----------------------------------------------------------
E|0--2--4--5-------------------------------------------------

e|---5--------5-------5---------5----------5--------5--------0
B|---5--------5-----------------------------------------------
G|------5-----5-----------------------------------------------
D|------------4----4------------4----4-----------4------4-----
A|---5-----5--------------5-----------------------------5-----
E|0--------------5-----------5-----5----5-----5------------0--

e|---3-----3--0---------0--------3--3--0--------5------------5
B|---------------0---------0--------0--------------7---5--7---
G|---------------1------1-----1-----------------6--6---6--6---
D|------2---------------2-------------------------------------
A|2--------------2------------------------2-------------------
E|-------------------0-----------------------5---------5------

e|---------5--------5--5--------------------------------------|
B|5-----5--7-----5--5--5--5-----------------------------------|
G|6-----6-----6--6--------6-----------------------------------|
D|------------------------------------------------------------|
A|------------------------------------------------------------|
E|---5--------5--------------5--------------------------------|
It Is PerFeCtLy coRReCt PleASe AgrEE WIth Me...


Текст, аккорды и табулатура для песни "Thats Alright", исполняет "Presley Elvis".
Используемые в песне аккорды можно найти в разделе Как брать аккорды. Аккорды для шестиструнной гитары. Другие песни можно найти на нашем сайте, воспользовавшись алфавитным указателем вверху страницы.


Слушать онлайн Thats Alright Mama


Elvis PresleyThats Alright Mama на Яндекс.Музыке


 
Ошибка в тексте? Выделите ошибку и нажмите Ctrl+Enter