MY BABY LEFT ME- Elvis Presley

INTRO
  |--/0-----------------|
  |--/5-----------------|
  |--/6----5-7----------|
  |--------5-7----------|
  |-------------7--4-4--|
  |---------------------|
                pm...
VERSE 1 (play intro riff throughout)
  Yes, my baby left me, never said a word.
  Was it something I done?  Something that she heard?
CHORUS
     A7            B7
  |--------------|--------------|
  |--5---5----5--|--7---7----7--|
  |--5-7-5--7-5--|--7-9-7--9-7--|
  |----7----7----|----9----9----|
  |--------------|--------------|
  |--------------|--------------|
  A7
  My baby left me, yes she left me.
          B7                             Back to intro
  My baby even left me, never said a word.
VERSE 2 (the same)
  Oh, I stand at my window.  Wring my hands and cry.
  I hate to lose that woman, hate to say goodbye.
CHORUS (same)
SOLO
  |--/9-----------------|
  |--/10--9-11----------|
  |-------9-11----------| Four
  |---------------------|  times
  |-------------7--4-4--|
  |---------------------|
             pm.......
  Then play the chorus riff once.
  Then play the intro riff a couple times.
VERSE 3 (continue with intro riff)
  Baby, one of these moments, lord, it won't be long.
  You look for me baby and Daddy will not know.
CHORUS (same)
VERSE 4 (same)
  Now I stand at window, wring my hands and moan.
  All I know that the one I love is gone.
CHORUS (same)
Fade with intro riff.


If you have a better version please send me it.
If there are some mistakes or if you have any comments, please mail me:     [email protected]
(Excuse my English:)
(Excuse my English:)


Текст, аккорды и табулатура для песни "My Baby Left Me", исполняет "Presley Elvis".
Используемые в песне аккорды можно найти в разделе Как брать аккорды. Аккорды для шестиструнной гитары. Другие песни можно найти на нашем сайте, воспользовавшись алфавитным указателем вверху страницы.


Слушать онлайн My Baby Left Me


Elvis PresleyMy Baby Left Me на Яндекс.Музыке


 
Ошибка в тексте? Выделите ошибку и нажмите Ctrl+Enter