Tabbed By: PeaRce
I have only put the strings that are actually used in each part,
otherwise the tab is really long and annoying (for me anyway)...

INTRO
G-----------|
D-----------|
A--44444444-| x4
E-----------|

VERSE
G-----------------------------------|
D------------------4-4-4-4-6-6-6-6--|
A--4-4-4-4-6-6-6-6------------------|
E-----------------------------------|

PRE-CHORUS
G-----------------------------------|
D-----------------------------------|
A-----------------------------------|
E--1-1-1-1-2-2-2-2-4-4-4-4-4-4-4-4--|

CHORUS
G-----------------------------------|
D-----------------------------------|
A--4-4-4-4-4-4-4-4------------------|
E-------------------1-2-2-2-2-2-2-2-|

POST-CHORUS
A--4-4-4-4-3-3-3-3-1-1-1-1-1-1-1-1--|---------1~-----------1~--|
E-----------------------------------|--4~----4------4~----4----|

DURING SOLO
G----------------|         ----------------|  
D--4--6----3--4--| x3 THEN --4--6----7--8--|    
A----------------|         ----------------|
E----------------|         ----------------|

BEFORE OUTRO
G-------------------------------|
D-------------------------------|
A-4-4-4-4-3-3-3-3---------------|
E----------------------2-2--2~--|               SOLO & OUTRO ENDING
                                              |----6--8--4--8--4-6--|
OUTRO
G--------------------33-55-66--|
D----------33-44-66------------|
A--44-66-----------------------|
E------------------------------|


Текст, аккорды и табулатура для песни "Video Killed The Radio Star", исполняет "Presidents Of The Usa".
Используемые в песне аккорды можно найти в разделе Как брать аккорды. Аккорды для шестиструнной гитары. Другие песни можно найти на нашем сайте, воспользовавшись алфавитным указателем вверху страницы.


 
Ошибка в тексте? Выделите ошибку и нажмите Ctrl+Enter