Video killed the radio star by Presidents of the USA
Intro
D5

Verse
D5	E5	G5	A5
I heard you on the wireless back in fifty two
D5	E5	G5	A5
Lying a-wake in bed then tuning in on you
F#5	G5		A5
If I was young it didn't stop you coming through
F#5	G5		A5
Oh oh.

Verse 2
D5	E5	G5	A5
They took the credit for your second symphony
D5	E5	G5	A5
Rewritten by machine and new technology
F#5	G5		A5
And now I understand the problems you can see
F#5	G5		A5
Ohoh I met your children
F#5	G5		A5
Ohoh What did you tell them ?

Chorus
D		G
Video Killed The Radio Star
D		G
Video Killed The Radio Star
D5	C#5	B5
In my mind, and in my car
D5	C#5	B5
We can?t rewind, we?ve gone too far
A5	B5
Ohhhh oh oh oh
A5	B5
Ohhhh oh oh oh

Verse
And now we meet in an abandoned studio
We hear the playback and it seems so long ago
And you remember the jingles used to go
Ohoh You were the first one
Ohoh You were the last one
Chorus
D		G
Video Killed The Radio Star
D		G
Video Killed The Radio Star
D5	C#5	B5
In my mind, and in my car
D5	C#5	B5
We can?t rewind, we?ve gone too far
A5	B5
Ohhhh oh oh oh
A5	B5
Ohhhh oh oh oh

Solo  (D5 G5 X3    G5    A5    G5    A5-B5-G5-B5-G5-----------------------|A5
E-------------------------------------------------------------------------|
B-------------------------------------------------------------------------|
G------4-------------------------4------------------------4---------------|
D----------7-5-4-5s/7-------------7-5-4^5-4^5-4^5-----------7-5-4-5s/7----|
A---5-------------------5-----5-------------------5------5-------------5--|
E-7-------------------------7--------------------------7------------------|

E-----------------------------------------------------------------------------------|
B-----------------------------------------------10-12--8--12--8--10-----------------|
G-----------------------------------------------------------------------------------|
D------5-7s/9---------5s/7---------5-5s/7--5----7---9--5---9--5---7-----------------|
A---5--------------9-7-----------5--------------------------------------------------|
E-3--------------5-------------3----------------------------------------------------|
D		G
Video Killed The Radio Star
D		G
Video Killed The Radio Star
D5	C#5	B5
In my mind, and in my car
D5	C#5	B5
We can?t rewind, we?ve gone too far
D5	C#5	B5
Pictures came and broke your heart
D5	C#5	B5
So put all the blame on VCR

Slow Part
A5	D5	G5	D5
You Are? Radio Star
A5	D5	G5	D5
You Are? Radio Star

D		G
Video Killed The Radio Star
D		G
Video Killed The Radio Star
D		G
Video Killed The Radio Star
D		G
Video Killed The Radio Star
D		G
Video Killed The Radio Star
D		G
Video Killed The Radio Star
D		G
Video Killed The Radio Star
D		G
Video Killed That Radio Star, Yes It did
A5-B5-G5-B5-G5      D5

Tabbed By: Jaymz


Текст, аккорды и табулатура для песни "Video Killed The Radio Star", исполняет "Presidents Of The Usa".
Используемые в песне аккорды можно найти в разделе Как брать аккорды. Аккорды для шестиструнной гитары. Другие песни можно найти на нашем сайте, воспользовавшись алфавитным указателем вверху страницы.


 
Ошибка в тексте? Выделите ошибку и нажмите Ctrl+Enter