Feather Pluckin'
by: The Presidents of the USA

Submitted By: Frank Verwijs
Email: [email protected]

2nd track on their first album

You don't have to break 3 strings on your guitar and tune the remaining 3 different than before to get the sound of this track right.

Intro + Outro

D-6h8-6--------4h6-4--------4~-2---------
A-4---4-4h6p4--2---2-4p2---2----4p2------
E------------6-----------4----------4----

verse
A-8--8-8-8--8-8-9--9-9-9-9-
E-9--9-9-9--9-9-9--9-9-9-9-

pre-chorus
A-6------9--
E-4------7--

Chorus
D-6--8-----4---- repeat a few times, then: Nobody taught them how:
A-4--6--6--2--4-
E-------4-----2-       D-4---6-----
                       A-2-4-4-4-6-
                       E---2---2-4-
If you have comments or request a song then e-mail to [email protected]


Текст, аккорды и табулатура для песни "Feather Pluckin", исполняет "Presidents Of The Usa".
Используемые в песне аккорды можно найти в разделе Как брать аккорды. Аккорды для шестиструнной гитары. Другие песни можно найти на нашем сайте, воспользовавшись алфавитным указателем вверху страницы.


 
Ошибка в тексте? Выделите ошибку и нажмите Ctrl+Enter