pre_shrunk
tabs for 51st state

	tabbed by rossko

	email. [email protected]


G------------------------------------------------------------------|
D------------------------------------------------------------------|
A---7-7--7-7----5-5--5-5---7-7--7-7--7-9--5------------------------|
D------------------------------------------------------------------|

G------------------------------------------------------------------|
D------------------------------------------------------------------|
A---------------------------------5--------------------------------|
D---7----5-----0--------7----5-------------------------------------|

G------------------------------------------------------------------|
D------------------------------------------------------------------|
A---------------------------------5--------------------------------|
D---7----5-----0--------7----5-------10----------------------------|

G------------------------------------------------------------------|
D------------------------------------------------------------------|
A---7-7-7--7-7----5-5-5--5-5----7-7-7--7-7--7-9-----5-5-5--5-5-----|
D------------------------------------------------------------------|

G------------------------------------------------------------------|
D------------------------------------------------------------------|
A---7-7-7--7-7----5-5-5--5-5----7-7-7--7-7--7-9--5-----5-----------|
D---------------------------------------------------------7--------|

G------------------------------------------------------------------|
D------------------------------------------------------------------|
A---7-7-7--7-7----5-5-5--5-5----7-7-7--7-7--7-9--5-----------------|
D------------------------------------------------------------------|

G------------------------------------------------------------------|
D------------------------------------------------------------------|
A---------------------------------5--------------------------------|
D---7----5-----0--------7----5-------------------------------------|

G------------------------------------------------------------------|
D------------------------------------------------------------------|
A---------------------------------5--------------------------------|
D---7----5-----0--------7----5-------------------------------------|

G------------------------------------------------------------------|
D------------------------------------------------------------------|
A---------------------------------5--------------------------------|
D---7----5-----0--------7----5-------10----------------------------|

G------------------------------------------------------------------|
D------------------------------------------------------------------|
A---7-7-7--7-7----5-5-5--5-5----7-7-7--7-7--7-9-9----5-5-5--5-5----|
D----------------------------------------------------------------7-|

G------------------------------------------------------------------|
D------------------------------------------------------------------|
A---7-7-7--7-7----5-5-5--5-5-------7-7-7--7-7--7-9----5-5-5--5-5---|
D-----------------------------7-7----------------------------------|


G------------------------------------------------------------------|
D------------------------------------------------------------------|
A------------------------------------------------------------------|
D---2-------------------------2------------------------------------|

G------------------------------------------------------------------|
D------------------------------------------------------------------|
A---7-7-7--7-7----5-5-5--5-5-------7-7-7--7-7--7-9--5--------------|
D-------------------------------7----------------------------------|


G--------------------------------------------------------------------|
D--------------------------------------------------------------------|
A--------------5------------------5----------------------------------|
D---7----5-------------7----5----------------------------------------|

G------------------------------------------------------------------|
D------------------------------------------------------------------|
A--------------5------------------5--------------------------------|
D---7----5-------------7----5--------------------------------------|


G------------------------------------------------------------------|
D------------------------------------------------------------------|
A------------------------------------------------------------------|
D---7----5-----0-------7----5-----0--------------------------------|

G------------------------------------------------------------------|
D------------------------------------------------------------------|
A--------------------------------5---------------------------------|
D---7----5-----0-------7----5---------10---------------------------|


Текст, аккорды и табулатура для песни "51st State", исполняет "Pre Shrunk".
Используемые в песне аккорды можно найти в разделе Как брать аккорды. Аккорды для шестиструнной гитары. Другие песни можно найти на нашем сайте, воспользовавшись алфавитным указателем вверху страницы.


 
Ошибка в тексте? Выделите ошибку и нажмите Ctrl+Enter