Лучше играть двумя гитарами

Первая гитара:

          D
Е -----------------
H --------3------- 
G -----2------2--
D --0-----------0
A ----------------
E ----------------

         A
Е -----------------
H ----------------
G -------2-------
D -----2----2----
A --0----------0-
E ----------------


          G
Е -----------------
H -----------------
G -----------------
D ---------5------
A -----5------5---
E --3-----------3-



Bb (A#)
Е -------------
H ------------
G -------3----
D ----3----3--
A -1---------1
E ------------

Вторая гитара:

     D 
Е ----------------------------------------------
H --3---5-6-5--3------5-6-5--3---5-6-5----------
G ----------------------------------------------------->>
D ----------------------------------------------    
A ----------------------------------------------
E ----------------------------------------------



      D                      A
Е -------------------------------------------------
H ---3---5-6-5—3---5-6-5—3------------------------
G ---------------------------0--2-----------------           2x
D -------------------------------------------------    
A -------------------------------------------------
E -------------------------------------------------


----------------------------------------------

     G

Е -------------------------------------------------------------
H -------6-----8--6--5--6--- 8--6--5--6----8--6--5--6--------- 
G ---0--------------------------------------------------------- ---->>
D -------------------------------------------------------------
A -------------------------------------------------------------
E -------------------------------------------------------------



       G		  Bb         A

Е ---------------------------------------------------
H -----8--6--5--6-- 8--6--5—6--5h3------------------
G ----------------------------------3--2------------  
D ---------------------------------------------------     2X
A --------------------------------------------------
E ---------------------------------------------------
	
	
	        
Комментарий автора: Подбор 97% точности, если не верите, попробуйте под музыку... если есть какие-нибудь вопросы пишите на \"мыло\". Спасибо за просмотр!

Текст, аккорды и табулатура для песни "Возрождение", исполняет "ППК".
Используемые в песне аккорды можно найти в разделе Как брать аккорды. Аккорды для шестиструнной гитары. Другие песни можно найти на нашем сайте, воспользовавшись алфавитным указателем вверху страницы.


 
Ошибка в тексте? Выделите ошибку и нажмите Ctrl+Enter