Рифф 1     играется - (0:00 - 0:27) и (1:59 - 2:26)
e:-----------------------------------------------------------|
B:----------------10/12-13-12-------------10/12-13-12--------|
G:-10-10-10--10----------------------|-10-10-10--10----------------------|
D:-----------------------------------------------------------|
A:-----------------------------------------------------------|
E:-----------------------------------------------------------|



 Басс 1     играется - (0:00 - 0:27) , (1:59 - 2:26) и (3:08 - до конца)
e:-----------------------------------|
B:-----------------------------------|
G:-----------------------------------|
D:-----------------------------------|
A:-5---5---5---5---|-5---5---5---5---|-5---5---5---5---|-5---5---5---5---|
E:-----------------------------------|



 Басс 2     играется - (1:17 - 1:58) и (2:26 - 3:07) 
e:-----------------------------------|
B:-----------------------------------|
G:-----------------------------------|
D:-----------------------------------|2x
A:-5---5---5---5---|-5---5---5---5---|-0---0---0---0---|-0---0---0---0---| 
E:-----------------------------------|




e:-----------------------------------|
B:-----------------------------------|
G:-----------------------------------|
D:-----------------------------------|2x
A:-----------------|-0---0---0---0---------|-0---0---0---0---|
E:-3---3---3---3---------|-3---3---3---3---------|



 Рифф 2     играется - (0:27 - 1:58) и (2:26 - до конца) во время того когда
играет "Основа" (чуть ниже) этот рифф играется так:  ( в конце играется только
первая, в общем сами разберетесь :) )               
  1) 4x             2) 4x            |_______________3) 4x_______________|  
e:-----------------------------------|
B:---------15------|-------10--------------------|
G:-----14------14--|----9------9-----|---------15------|---------14------|
D:-12--------------|-7---------------|-----15------15--|-----14------14--|
A:-----------------------|-13--------------|-12--------------|
E:-----------------------------------|



 Основа.    играется (0:34 - 1:57) и (2:26 - 3:07) в конце, начиная с 3:07
играются первые две части, там Вы сами легко разберетесь. 
e:------13---------|----12-13-12------|------13---------|----12-13-12------|
B:-15------15------|-15----------15-13|-15------15------|-15----------15-13|
G:-------------------------------------|
D:-------------------------------------|
A:-------------------------------------|
E:-------------------------------------|




e:-12--------------------------------|
B:------13---------------------|----17-----------|
G:---------14------|----14-----------|----17-----------|-14--------------|
D:-----------------|-14--------------|-14--------------------|
A:-----------------------------------|
E:-----------------------------------|




e:------13---------|----12-13-12------|------13---------|----12-13-12------|
B:-15------15------|-15----------15-13|-15------15------|-15----------15-13|
G:-------------------------------------|
D:-------------------------------------|
A:-------------------------------------|
E:-------------------------------------|




e:-17---18-17------------------------|
B:-----------------------------|----17-----------|
G:-----------------|----14-----------|----17-----------|-14--------------|
D:-----------------|-14--------------|-14--------------------|
A:-----------------------------------|
E:-----------------------------------|




e:-----------------------------------|
B:-----------------------------------|
G:-----------------|---------12-------------12-14|
D:------15-14-------15-14|------15-14------|---------15------|
A:-13--------------|-12-13-----------|-13--------------|-12-13-----------|
E:-----------------------------------|


 Ну вот собственно и все, спасибо за внимание!


Текст, аккорды и табулатура для песни "Перезагрузка", исполняет "ППК".
Используемые в песне аккорды можно найти в разделе Как брать аккорды. Аккорды для шестиструнной гитары. Другие песни можно найти на нашем сайте, воспользовавшись алфавитным указателем вверху страницы.


 
Ошибка в тексте? Выделите ошибку и нажмите Ctrl+Enter