PowerMan 5000
When Worlds Collide
Tabbed By Luke Stevens
1
G----------------------------------------------- 
D-----------------------------------------------
A---3-3-3-3------------------------------------- 
E------------2---2-2-2-0-2-2--------------------

2 
G----------------------------------------------- 
D----------------------------------------------- 
A---3-3-3-3------------------------------------- 
E------------2----------------------------------

3 
G----------------------------------------------- 
D----------------------------------------------- 
A---3-3-3-3------------------------------------- 
E------------2---2-2-2-0-2-0-2------------------ 

4
G---------------------------------------------------------- 
D----------------------------------------------------------
A--------------------------------------------------------0-
E----2-2-0-2-0-2--2-2-0-2-0-2--2-2-0-2-0-2-2-2-0-2---------


5
G---------------------------------------------------------- 
D----------------------------------------------------------
A-3-3-3-3-3-3-3-3--2-2-2-2-2-2-2-2----------------------0--
E--------------------------------------2-2-0-2-0-2-2-2-0-2-

6
G-------------------------------------------------------------- 
D--------------------------------------------------------------
A-3-3-3-3-3-3-3-3--2-2-2-2-2-2-2-2-----------------------------
E--------------------------------------2-2-0-2-0-2-2-2-0-2-5-

= Slide

Order
1 X3
2 X1
1 X3
3 X1
4 X2
2 X3
3 X3
2 X1
3 X1
4 X2
No Bass In Bridge
2 X4
1 X2
2 X1
3 X1
4 X4
5 X1 
6 X1


Текст, аккорды и табулатура для песни "When Worlds Collide", исполняет "Powerman 5000".
Используемые в песне аккорды можно найти в разделе Как брать аккорды. Аккорды для шестиструнной гитары. Другие песни можно найти на нашем сайте, воспользовавшись алфавитным указателем вверху страницы.


Слушать онлайн When Worlds Collide - Single (In the Style of Powerman 5000)


Done AgainWhen Worlds Collide - Single (In the Style of Powerman 5000) на Яндекс.Музыке


 
Ошибка в тексте? Выделите ошибку и нажмите Ctrl+Enter