Artist: Powerman 5000
Song: Wake up!
Album: Anyone for Doomsday?
Tabbed by: NoFace
Instrument Type: Bass
E Mail adress: [email protected]



Intro:  WAKE UP!


G/-----------
D/-----------
A/-----------
D/0-0----0-0-  X4


Chorus: WAKE UP  Its time to go You better leave now

G/---------------------------
D/---------------------------
A/---------------------------
D/0-0--5-5-5-5--0-0-1-3--0-0-

G/----------------------------
D/----------------------------
A/----------------------------
D/5--0-0--5--0-0--5--0-0--5-5-


Verse: 

G/------------------------------
D/------------------------------
A/------------------------------
D/0000---3333---5555---77--0000-

G/------------------------------------------------------------
D/------------------------------------------------------------
A/------------------------------------------------------------
D/0-0-0-0-0-0-0-0--3-3-3-3-3-3-3-3---5-5-5-5-5-5-5-5--0-0-0-0-

G/------------
D/------------
A/------------
D/33--55--00--

Bridge:

G/----------------------------------------
D/----------------------------------------
A/----------------------------------------
D/0-0-0-3-0-0-0-5-0-0-0-7-0-0-0-0-5-3-5-0-


Текст, аккорды и табулатура для песни "Wake Up", исполняет "Powerman 5000".
Используемые в песне аккорды можно найти в разделе Как брать аккорды. Аккорды для шестиструнной гитары. Другие песни можно найти на нашем сайте, воспользовавшись алфавитным указателем вверху страницы.


 
Ошибка в тексте? Выделите ошибку и нажмите Ctrl+Enter