Band: Powerman5000 
   Song: Nobodys Real 
   Cd: Tonight the Stars Revolt 
   Date: Sept 4, 1999 
   Tabbed by Mike 

   Drop tuning half step 

   This song starts w/ some wierd affect that isn't used on guitar 

   Intro 
   ----12-----12----12-----12--------- 
   -------12------11----10----10--9-- 
   ----------------------------------------- 
   ----------------------------------------- 
   ----------------------------------------- 
   ----------------------------------------- 

   Verse 
   -------------------------------------- 
   --------------------------------------- 
   --------------------------------------- 
   --------------------------------------- 
   --2-2---2-2---2-2----------------- 
   --0-0---0-0---0-0------------------ 
   pm---------------- 

   Chorus 
   ----------------------------------- 
   ----------------------------------- 
   ----------------------------------- 
   ----------------------------------- 
   --2--5-5--7-7--9-9--12-12-- 
   --0--3-3--5-5--7-7--10-10-- 

   Bridge 
   ----------------------------------- 
   ----------------------------------- 
   ----------------------------------- 
   ----------------------------------- 
   --2-2--2-2--2-2--2-2--5----- 
   --0-0--0-0--0-0--0-0--3----- 
   pm-------------------- 

   Other guitar on bridge 
   --12----12----12----12-------- 
   -----12----11----10----10--11 
   ------------------------------------- 
   ------------------------------------- 
   ------------------------------------- 
   ------------------------------------- 


Текст, аккорды и табулатура для песни "Nobodys Real", исполняет "Powerman 5000".
Используемые в песне аккорды можно найти в разделе Как брать аккорды. Аккорды для шестиструнной гитары. Другие песни можно найти на нашем сайте, воспользовавшись алфавитным указателем вверху страницы.


 
Ошибка в тексте? Выделите ошибку и нажмите Ctrl+Enter