Powerman 5000- Free
Tabbed By Alex

this is an awesome song.  the other ones aren’t tabbed right at all so I'll do this one right.

TUNING: Drop D 1/2 step down
Eb
Bb
Gb
Db
Ab
Db

H-harmonics -slide  b-bend  h-hammer on  p-pull off  x-fret hand muting

Intro (Pt. 1), Verse
                        HH
Eb----------------------------------------------------------------
Bb----------------------------------------------------------------
Gb----------------------4----------------------------------------- x2
Db--9-9-9-9----7-7-7-7---4-5-5-5-5----2-2-2-2---------------------
Ab--9-9-9-9----7-7-7-7-----5-5-5-5----2-2-2-2---------------------
Eb--9-9-9-9----7-7-7-7-----5-5-5-5----2-2-2-2---------------------

Intro (Pt. 2)
(rhythm)
Eb----------------------------------------------------------
Bb----------------------------------------------------------
Gb----------------------------------------------------------
Db--9-9-9-9-99-7-7-7-7-5-5-5-5-55-2-2-2-2-2-----------------
Ab--9-9-9-9-99-7-7-7-7-5-5-5-5-55-2-2-2-2-2-----------------
Eb--9-9-9-9-99-7-7-7-7-5-5-5-5-55-2-2-2-2-2-----------------

(lead)
Eb-----------------------------------------------
Bb-----------------------------------------------
Gb-----------------------------------------------
Db-----------------------------------------------
Ab--9-9-9-5-9-12-12-12-9---9-9-9-5-7-2-2-2-2-2---
Eb-----------------------------------------------

Verse- same as the first part of the intro, but without the harmonics.

Chorus (rhythm)
Eb----------------------------------------------
Bb----------------------------------------------
Gb---------------------------------------------- x2
Db--5-5-5-5-7-7-7-0-2-2-0-2--0-2----------------
Ab--5-5-5-5-7-7-7-0-2-2-0-2--0-2----------------
Db--5-5-5-5-7-7-7-0-2-2-0-2--0-2----------------

Chorus (lead)
this parts kind of hard to hear but its in there
Eb----5-----5-----5-----5-----5-5----5-----5-----5-----7-7-7-5-5---
Bb--3---3-3---3-3---3-3---3-3------3---3-3---3-3---3-3-------------
Gb-----------------------------------------------------------------
Db-----------------------------------------------------------------
Ab-----------------------------------------------------------------
Db-----------------------------------------------------------------
Eb----5-----5-----5-----5-----5-5----7-7-7-------------------
Bb--3---3-3---3-3---3-3---3-3------3-------5-5-5-------------
Gb-----------------------------------------------2-4-4-2-4---
Db-----------------------------------------------------------
Ab-----------------------------------------------------------
Db-----------------------------------------------------------

Play Intro Pt 2 again

Verse

Chorus

Before Bridge
Eb------2--------
Bb---------------
Gb--4-----2-4/---
Db---------------
Ab---------------
Db---------------

Bridge (rhythm)
Eb--------------------------------------------------------------------
Bb--------------------------------------------------------------------
Gb--77777777-66666666-44444444-49999999-77777777-66666666-55555555---
Db--77777777-66666666-44444444-49999999-77777777-66666666-55555555---
Ab--55555555-44444444-22222222-27777777-55555555-44444444-33333333---
Db--------------------------------------------------------------------

Eb-------------
Bb-------------
Gb-------------
Db--55555555---
Ab--55555555---
Db--55555555---

(lead)
Eb--------------------------------------------------------
Bb--------------------------------------------------------
Gb--------------------------------------------------------
Db----4----4-------4----4-------4-----4-4-----------------
Ab--5---5----5-5-4---4----4-4-2---2-2-------7p5---7p5-5---
Db----------------------------------------5-----5---------

Eb----------------------------------------------------------------------
Bb----------------------------------------------------------------------
Gb-------------------------------------------------12-12-12-12-12-12-12-
Db----7-----7-7-----7-----------7-----7-7b-----7------------------------
Ab--9---9-9-----9-9---9-5-7---9---9-9------9-9---7----------------------
Db----------------------------------------------------------------------

chorus x2

intro pt 2

verse

That’s it.  questions or comments or anything email me or IM me at [email protected]


Текст, аккорды и табулатура для песни "Free", исполняет "Powerman 5000".
Используемые в песне аккорды можно найти в разделе Как брать аккорды. Аккорды для шестиструнной гитары. Другие песни можно найти на нашем сайте, воспользовавшись алфавитным указателем вверху страницы.


Слушать онлайн Super Villain


Powerman 5000Super Villain на Яндекс.Музыке


 
Ошибка в тексте? Выделите ошибку и нажмите Ctrl+Enter