Powerman 5000 - Free


Intro/Verse/Outro
G|----------------------------------------|
D|----------------------------------------|
A|----------------------------------------|
D|-9-9-9-9---7-7-7-7---5-5-5-5---2-2-2-2--|x2

Pre-verse
G|----------------------------------------------------------------|
D|----------------------------------------------------------------|
A|----------------------------------------------------------------|
D|-9-9-9-9-9-9-9-7-7-7-7-7-7-7-7-5-5-5-5-5-5-5-5-2-2-2-2-2-2-2-2--|x2

Intro/Verse/Outro
G|----------------------------------------|
D|----------------------------------------|
A|----------------------------------------|
D|-9-9-9-9---7-7-7-7---5-5-5-5---2-2-2-2--|x2

Chorous
G|------------------------|
D|------------------------|
A|------------------------|
D|-/5--/7--0-2-2-2-2-2-2--|x4

Pre-verse
G|----------------------------------------------------------------|
D|----------------------------------------------------------------|
A|----------------------------------------------------------------|
D|-9-9-9-9-9-9-9-7-7-7-7-7-7-7-7-5-5-5-5-5-5-5-5-2-2-2-2-2-2-2-2--|x2

Intro/Verse/Outro
G|----------------------------------------|
D|----------------------------------------|
A|----------------------------------------|
D|-9-9-9-9---7-7-7-7---5-5-5-5---2-2-2-2--|x2

Chorous
G|------------------------|
D|------------------------|
A|------------------------|
D|-/5--/7--0-2-2-2-2-2-2--|x8

Bridge

G|------------------------------------------------------------------|
D|------------------------------------------------------------------|
A|-7-7-7-7-7-7-7-7-6-6-6-6-6-6-6-6-4-4-4-4-4-4-4-4------------------|
D|-------------------------------------------------5-5-5-5-5-5-5-5--|x7

Chorous
G|------------------------|
D|------------------------|
A|------------------------|
D|-/5--/7--0-2-2-2-2-2-2--|x8

Pre-verse
G|----------------------------------------------------------------|
D|----------------------------------------------------------------|
A|----------------------------------------------------------------|
D|-9-9-9-9-9-9-9-7-7-7-7-7-7-7-7-5-5-5-5-5-5-5-5-2-2-2-2-2-2-2-2--|x2

Intro/Verse/Outro
G|----------------------------------------|
D|----------------------------------------|
A|----------------------------------------|
D|-9-9-9-9---7-7-7-7---5-5-5-5---2-2-2-2--|x2


Tabbed by: arturo puk


Текст, аккорды и табулатура для песни "Free", исполняет "Powerman 5000".
Используемые в песне аккорды можно найти в разделе Как брать аккорды. Аккорды для шестиструнной гитары. Другие песни можно найти на нашем сайте, воспользовавшись алфавитным указателем вверху страницы.


Слушать онлайн Super Villain


Powerman 5000Super Villain на Яндекс.Музыке


 
Ошибка в тексте? Выделите ошибку и нажмите Ctrl+Enter