Band:PowerMan 5000
Song:Bombshell
Tuning:Drop D then half a step down
(Db-Ab-db-Gb-Bb-Eb-)

.=palm mute
h=hammer-on
p=pull-off
/=slide


      Riff 1:
    Eb|---------------------------|---------------------|
    Bb|---------------------------|---------------------|
    Gb|---------------------------|---------------------|
    Db|-2-2--2-2--2-2--2-2--2h5p2-|-2-2--2-2--2-0-------|
    Ab|-2-2--2-2--2-2--2-2--2h5p2-|-2-2--2-2--2-0-------|
    Db|-2-2--2-2--2-2--2-2--2h5p2-|-2-2--2-2--2-0-------|
          .    .    .    .      .     .    .

      Riff 2:
    Eb|-6---7--------|
    Bb|---------5----|
    Gb|--------------|
    Db|--------------|
    Ab|--------------|
    Db|--------------|

      Riff 3:
    Eb|---------|-------------|
    Bb|---------|-------------|
    Gb|---------|-------------|
    Db|-2-2-2-2-|-3--2--0--2--|
    Ab|-2-2-2-2-|-3--2--0--2--|
    Db|-2-2-2-2-|-3--2--0--2--|
        . . . .

      Riff 4:
    Eb|---------------------------------|
    Bb|-5-5-5-5-6-6-6-6-3-3-3-3-5-5-5-5-|
    Gb|---------------------------------|
    Db|---------------------------------|
    Ab|---------------------------------|
    Db|---------------------------------|

      Riff 5:
    Eb|---------|
    Bb|-5p3-5-5-|
    Gb|---------|
    Db|---------|
    Ab|---------|
    Db|---------|

      Riff 6:
    Eb|---------------------|
    Bb|---------------------|
    Gb|---------------------|
    Db|-2-2/5-5/7-7-7-7/8-8-|
    Ab|-2-2/5-5/7-7-7-7/8-8-|
    Db|-2-2/5-5/7-7-7-7/8-8-|

      Riff 6:
    Eb|---------------------------|
    Bb|-5-5/8-8/10-10-10-10/11-11-|
    Gb|-x-x/x-x/x--x--x--x-/x--x--|
    Db|-2-2/5-5/7--7--7--7-/8--8--|
    Ab|---------------------------|
    Db|---------------------------|

      Riff 8:
    Eb|-------------|
    Bb|-------------|
    Gb|-------------|
    Db|-3-2-2-2-2-2-|
    Ab|-3-2-2-2-2-2-|
    Db|-3-2-2-2-2-2-|
        . . . . . .


Текст, аккорды и табулатура для песни "Bombshell", исполняет "Powerman 5000".
Используемые в песне аккорды можно найти в разделе Как брать аккорды. Аккорды для шестиструнной гитары. Другие песни можно найти на нашем сайте, воспользовавшись алфавитным указателем вверху страницы.


Слушать онлайн Bombshell From Hell


Scum Of The EarthBombshell From Hell на Яндекс.Музыке


 
Ошибка в тексте? Выделите ошибку и нажмите Ctrl+Enter