Drop D tuning: Bb F Bb  (Listen to the song and  match it with the tab)         

Chorus:
       Guitar 1 w/wah

|9--10--8h99-9--10--8h99-9--10--8h99-9--|
|--8--88-------8--88-------8--88------b8|
|---------------------------------------|
|---------------------------------------|
|---------------------------------------|
|---------------------------------------|

       Guitar 2 heavy Dist.

|---------------------------------------------------------------------
|---------------------------------------------------------------------
|---------------------------------------------------------------------
|55-55-55-5-5-5h8-5-55-55-55-5-5-5h8-5-55-55-55-5-5-5h8-5-55-55-55-2VV
|55-55-55-5-5-5h8-5-55-55-55-5-5-5h8-5-55-55-55-5-5-5h8-5-55-55-55-2VV
|55-55-55-5-5-5h8-5-55-55-55-5-5-5h8-5-55-55-55-5-5-5h8-5-55-55-55-2VV

Verse:  Mute   (after four times release mute)
      Guitar 1     
|-------------------------------------------
|-------------------------------------------
|9-9-9-9-10-10-10-10-------------9-9-9-9----
|--------------------12-12-12-12------------
|-------------------------------------------
|-------------------------------------------

      Guitar 2   Muted
|-----------------after third time
|--------------------|-------
|--------------------|-------
|2-2-2-2-2--3-3-3-3-3|6-5-3-5
|2-2-2-2-2--3-3-3-3-3|6-5-3-5
|2-2-2-2-2--3-3-3-3-3|6-5-3-5

Chorus:
      Both Guitars
|---------------------------------------------------------------------
|---------------------------------------------------------------------
|---------------------------------------------------------------------
|55-55-55-5-5-5h8-5-55-55-55-5-5-5h8-5-55-55-55-5-5-5h8-5-55-55-55-2--
|55-55-55-5-5-5h8-5-55-55-55-5-5-5h8-5-55-55-55-5-5-5h8-5-55-55-55-2--
|55-55-55-5-5-5h8-5-55-55-55-5-5-5h8-5-55-55-55-5-5-5h8-5-55-55-55-2--

then 2nd time 
        Guitar 1

|9--10--8h99-9--10--8h99-9--10--8h99-9--|
|--8--88-------8--88-------8--88------b8|
|---------------------------------------|
|---------------------------------------|
|---------------------------------------|
|---------------------------------------|

Outro 1- 3 times
|--------------------------
|--------------------------
|--------------------------
|5-5-8-8-10-101010-11-11-11
|5-5-8-8-10-101010-11-11-11
|5-5-8-8-10-101010-11-11-11

    Guitar 1 on 3rd

|-------------------------
|------------131313-141414
|12-12-15-15--------------
|-------------------------
|-------------------------
|-------------------------

Outro 2    only at the end
 P1   2x   Part 2        
|-------|-----------------
|-------|-----------------
|-------|-----------------
|5-55555|5-55-5-55-5-55555           
|5-55555|5-55-5-55-5-55555           
|5-55555|5-55-5-55-5-55555           

Outro 1- 3x
outro 2- Parts 1&2 2x


Текст, аккорды и табулатура для песни "Bombshell", исполняет "Powerman 5000".
Используемые в песне аккорды можно найти в разделе Как брать аккорды. Аккорды для шестиструнной гитары. Другие песни можно найти на нашем сайте, воспользовавшись алфавитным указателем вверху страницы.


Слушать онлайн Bombshell From Hell


Scum Of The EarthBombshell From Hell на Яндекс.Музыке


 
Ошибка в тексте? Выделите ошибку и нажмите Ctrl+Enter