We Should Be Together Now
P O W D E R F I N G E R
Tabbed by Aaron Bridgemam ([email protected])

http://bogans.arecool.net

KEY:
~ = sustain
h = hammer on
p = pull off
^ = bend (listen to song for amount)
/ = slide up

VERSES:
No guitar, 1st verse no bass either

quick stab at verse bass line, probably wrong
G|------------------|
D|----8---------6/8-|
A|------------------|
E|-6-----6--6-6-----|

PRE-CHORUS and CHORUS:
e|-------------------------------------|
B|-------------------------------------|
G|-------------------------------------|
D|----------6-6-6-66-------------------|
A|-8-8-8-88-4-4-4-44-4-4-4-44-4-4-4-44-|
E|-6-6-6-66----------2-2-2-22-2-2-2-22-|

END OF CHORUS:
e|--------------------|
B|--------------------|
G|--------------------|
D|--------------------|
A|-8~~~---8~~~---8~~~-|
E|-6~~~---6~~~---6~~~-|

LEAD BREAK:

*1st time / 3rd time*
e|-----------------------------------------------|
B|-----------------------------------------------|
G|---------6---------6---------6---------8^-8^p6-|
D|-----6h8-------6h8-------6h8---8p6h8~~---------|
A|-6h8-------6h8-------6h8-----------------------|
E|-----------------------------------------------|

*2nd time*
e|------------------------------------------------|
B|------------------------------------------------|
G|---------6---------6---------6------------------|
D|-----6h8-------6h8-------6h8---8p6h8~~--8p6h8~~-|
A|-6h8-------6h8-------6h8------------------------|
E|------------------------------------------------|

*4th time*
e|--------------------------------------------|
B|--------------------------------------------|
G|---------6---------6---------6--------------|
D|-----6h8-------6h8-------6h8---8p6h8~~~~~~~-|
A|-6h8-------6h8-------6h8--------------------|
E|--------------------------------------------|

That's it, best song of Odyssey Number Five I reckon


Текст, аккорды и табулатура для песни "We Should Be Together Now Full", исполняет "Powderfinger".
Используемые в песне аккорды можно найти в разделе Как брать аккорды. Аккорды для шестиструнной гитары. Другие песни можно найти на нашем сайте, воспользовавшись алфавитным указателем вверху страницы.


 
Ошибка в тексте? Выделите ошибку и нажмите Ctrl+Enter