Bass Tab
Belter
Powderfinger
Taken from the album ?Internationalist?


Note: This tab is not entirely correct, this is the way
I play this ?please send me any corrections

Tabbed by Darren Ground
[email protected]

Listen to recording for timing


Verse, after guitar intro
G-------------------------------------------------------|
D-------------------------------------------------------|
A-5/7---5/7---5/7?5/7?5/7----5/7------------------------|
E-------------------------------------------------------|


Verse variation
G-------------------------------------------------------|
D-------------------------------------------------------|
A-4-4-4-4-4-4-4-4--5-5-5-5-5-5-5-5----------------------|
E-------------------------------------------------------|


Bridge to chorus
G-------------------------------------------------------|
D-------------------------------------------------------|
A---------7/9-9-9------------------------------7-7------|
E-2---2-2---------5---5-5---17----0---0-0--0-----------|

chorus
G---------------------------------------------------------|
D---------------------------------------------------------|
A-4-4-4-4-4-4-4-4-5-5-5-5-5-5-5-5-------------------------|
E---------------------------------5-5-5-5-5-5-5-5-5-5-5-5-|


Repeat these riffs through song, in various combinations


Текст, аккорды и табулатура для песни "Belter", исполняет "Powderfinger".
Используемые в песне аккорды можно найти в разделе Как брать аккорды. Аккорды для шестиструнной гитары. Другие песни можно найти на нашем сайте, воспользовавшись алфавитным указателем вверху страницы.


Слушать онлайн Belter


PowderfingerBelter на Яндекс.Музыке


 
Ошибка в тексте? Выделите ошибку и нажмите Ctrl+Enter