Рифф 1

   C#5 C5  H5 A#5 A5      C5 D5
D|-11--10--9--8---7-------10-12-|
A|-11--10--9--8---7-------10-12-|
E|-9---8—--7--6---5-------8--10-|

Рифф 2

D|-77-5-77-5-77-5-77-5--10-10-10--12-12---5-6---|
A|-77-5-77-5-77-5-77-5--10-10-10--12-12---5-6---|
E|-55-3-55-3-55-3-55-3--8--8--8---10-10---3-4---|

Рифф 3

D|-7-7-7-7--10-10-10-10--12-12-12-12---5-5--6---|
A|-7-7-7-7--10-10-10-10--12-12-12-12---5-5--6---|
E|-5-5-5-5--7--7--7--7---10-10-10-10---3-3--4---|

Вступление: Рифф 1
            Рифф 2 > 4 раза
 
 A5	           C5  
    Каждый день      я просыпаюсь
 D5	    G5	    G#5	      A5
И, если я дышу, значит, я - живой!
   A5	           C5
Каждый день меня греет солнце,
   D5	        G5  G#5  
Я вижу небо над головой.
A5		C5	D5
Куча ублюдков хотят тебя отыметь
	 G5	G#5
Им только волю дай
  A5	           C5 
Врежь по зубам одному, другому
D5	      G5  G#5 
Люки задрай - выживай!

Рифф 2 > 4 раза
Рифф 3 > 2 раза

Жадный мент не отнимет мой ветер 
Бандит не сожрет мой снег. 
Машина потребления телемыла - 
Это современный человек. 
Каждый рвет жопу за кусок колбасы
Каждый доволен тем, что есть сарай, 
Жена, машина, работа, собака. 
Задрай все люки - выживай!

Рифф 2 > 4 раза
Рифф 3 > 2 раза

[Снова исполняется первый куплет]

Рифф 2 > 4 раза
Рифф 3 > 2 раза


Текст, аккорды и табулатура для песни "Выживай", исполняет "Порт (812)".
Используемые в песне аккорды можно найти в разделе Как брать аккорды. Аккорды для шестиструнной гитары. Другие песни можно найти на нашем сайте, воспользовавшись алфавитным указателем вверху страницы.


 
Ошибка в тексте? Выделите ошибку и нажмите Ctrl+Enter