Вступление:
        C             F            Am            G       > 2 раза
E||-------------|------------|------------|--------------|
H||-------------|------------|-------1----|--------------|
G||--------0----|-------0----|------------|--------------|
D||-----2-----2-|----3-----3-|----2-----2-|-------2------|  
A||--3----------|-3----------|-0----------|----5-----5---|
E||-------------|------------|------------|-3------------|


        C             F            Am            G
E||-------------|------------|------------|--------------|
H||-------------|------------|-------1----|--------------|
G||--------0----|-------0----|------------|--------------|
D||-----2-----2-|----3-----3-|----2-----2-|-------2------|
A||--3----------|-3----------|-0----------|----5-----5---|
E||-------------|------------|------------|-3------------|
    Моя       свобода это    блеф и      заблужденье
    Она        рассеется как  дым и снова  пробужденье
    День прожи - тый без тебя  пуст  и      бесполезен
    Мир    пос - тели пустой       холо  - ден и тесен
 
   F                       G
E||-----------------------|-----------------------|
H||-----------------------|-----------------------|
G||-----------------------|--------------0--------|
D||-------0----------0----|-------2---------3--2--|
A||----3-----3----3-----3-|----5-----5------------|
E||-1-----------1---------|-3---------------------|
    И  только   каждую     ночь  ты   приходишь ко мне
   C                       Am
E||-----------------------|-----------------------|
H||-------1------3---1----|-------------0---------|
G||----------0----------0-|------2---------2------|
D||-----------------------|---------2---------2---|
A||-3---------------------|-0---------------------|
E||-----------------------|-----------------------|
        В мои цветные      сны в них улыбаешься ты  
     
E||-----------------------|----------------------|
H||-----------------------|----------------------|
G||-----------------------|----------------------|
D||-------0----------0----|-------2--------3-3--2|     
A||----3-----3----3-----3-|----5-----5-----------|
E||-1-----------1---------|-3-----------3--------|
  Я снова твой герой                   и ты со мной

          P.M.P.M.P.M.P.M.
Проигрыш: C | F | Am | G 

C             Am              G
В последний раз небо твоих глаз 
                 F            G
Плачет болью я расплатиться кровью
C                        Am               A# 
Готов за все что сделал я но нет наказания
                  G
В этом мире чтобы вернуть тебя
C              Am          G 
Дороже мне твои недостаткиии
               F  
Чем моя душа ты лучшая половинааа
Am   G    Am    F      G
Я знаю все в прошлом но
               F              C  Am F G      
Возращаюсь домой где ты со мной  
            C  Am F  G
Где ты со мной  

проигрыш: C F Am G-4р   F

Я не хочу поверь я немогу
Просто другом быть для тебя ведь стука
Нету в сердце моем когда мы не вдвоем
Когда я один нагроможденье льдин
Вокруг меня и это игра
Кидая за борт и топит меня
Я знаю все в прошлом но
Возвращаюсь домой где со мной
Где ты со мной


Текст, аккорды и табулатура для песни "Ты со мной", исполняет "Порт (812)".
Используемые в песне аккорды можно найти в разделе Как брать аккорды. Аккорды для шестиструнной гитары. Другие песни можно найти на нашем сайте, воспользовавшись алфавитным указателем вверху страницы.


 
Ошибка в тексте? Выделите ошибку и нажмите Ctrl+Enter