This is the rymth throughout the whole song except for the outro

e------------0------------------0-----------------0-----------------0---I
b----0-------0-0--------0-------0-0--------0------0-0--------0------0-0-I
g----3---------3--------3---------3--------4--------4--------1--------1-I
d--4-----4------------4-----4------------6-----6-----------2-----2------I
a--4-----4------------4-----4------------6-----6-----------2-----2------I
E-----------------------------------------------------------------------I


 i don't know the first solo but the second solo is just the 
 rythm played with distortion and a wah pedal


 here is the outro

e---0------0------4--------0-------------------
b----0------0------5---7----0-----------0------
g-----3------3------4--------3-----------------
d------4------4---------------4--4/6--6----4---
a----------------------------------------------
E----------------------------------------------

e---0------0------0-----------0-------0--------
b----0------0------0---------0-------0---------
g-----3------3------4-------1-------3----------
d------4------4------6-----2-------4-----------
a----------------------------------------------
E----------------------------------------------

thats pretty much everything, this it a fun song ot play
when i figure out the first solo i'll post it right away

 rock on,            Perry is God


Текст, аккорды и табулатура для песни "Pets", исполняет "Porno For Pyros".
Используемые в песне аккорды можно найти в разделе Как брать аккорды. Аккорды для шестиструнной гитары. Другие песни можно найти на нашем сайте, воспользовавшись алфавитным указателем вверху страницы.


 
Ошибка в тексте? Выделите ошибку и нажмите Ctrl+Enter