Posion - Richies acoustic thang
Tabbed By: imthebeststd
EMail: [email protected]


[email protected]---------------------------------|
|-----------------9------------9---9---7---7--------------|---------------------------------------|
|-----------4-6-9------------------------9---9-6-8-6-4---4|---------------------------------------|
|---------6--------------------------------------------7--|-6-7-6-4---4--4---------2-----------2--|
|-------7-------------------------------------------------|---------7--7---7-4-2------------------|
|-0-4-7---------------------------------------------------|----------------------0---4-2-4-2-0----|

           N.H............
|-------------------------|----------------4-7-11-7-11-----------------------7--11-14--11--|
|---------[12]-[7]-[5]----|--------------4-------------9-------------------7---------------|
|---------[12]-[7]-[5]----|------------4-----------------8---------------8-----------------|
|-0----------------[5]----|----------6---------------------9-6---------9-------------------|
|-------------------------|--------7---------------------------6---6-9---------------------|
|------12-----------------|0-2-4-7-------------------------------7-------------------------|


|---------------------912117--------------------5-9-7-9|-7-5-4-5-7-5-4-2-4-5-4-2---------------------------------|
|-12-----------------9------9-----------------5--------|------------------------3--------------------------------|
|----1113-----------9---------8-------------6----------|--------------------------4-2-1--------------------------|
|--------9-------11-------------9-6-------7------------|--------------------------------2------------------------|
|---------9---711------------------6---4-7-------------|----------------------------------2-4-2-----6------------|
|----------119-----------------------75----------------|----------------------------------------6-4---4-2-4-2-0--|

 Let ring----------------------------------------------------------------|
|----------------------------0-----|--------------------2-------2-4-2--|----------x-----------------|
|--------0-----------------0-------|---2------3-------4---4-------4-4--|----------x-----------------|
|-----6----------7-------8---------|----------------2------------------|-2--------x-----------------|
|----------------------------------|-2----2-3---3-4----------4---------|----------x-----------------|
|----------------------------------|-----------------------------------|----------x-----------------|
|-5---------5-6------6-7-----------|-----------------------------------|----------x----------0-3-5--|

  Let ring-|   Let ring------------|  Let ring-----------|   Let ring------------------|
|------------------------------------------------|----------------------------------------|
|------------------------------------------------|----------------------------------------|
|------------------------------------------------|----------------------------------------|
|-0-2-----0-----0----------5-6----0-----0--------|-0-2---0---0----------5-6---0-----------|
|------------------------5-----------------------|--------------------5-------------------|
|------0-----------0-5-7--------0----------0-3-3-|-----0--------0-5-4-------0----7-5-3-5--|

 Let ring----|    Let ring------------| Let ring--------------|  Let ring----------------|     
|--------------------------------------------------|-----------------------------------------|
|--------------------------------------------------|-----------------------------------------|
|--------------------------------------------------|-----------------------------------------|
|--0--2------0-----0-----------5-6----0---0--------|-0--2-----0-----0-----------2--0----0----|
|----------------------------5---------------------|-----------------------------------------|
|---------0------------0-5-7-------0---------0-3-3-|-------0-----------0--3--5--------x------|


|----------------------------------------------------|---------------------------------------------------|
|----------------------------------------------------|---------------------------------------------------|
|----------------------------------------------------|----------7-7-9-9--------7---------9--9-------9-12-|
|------------------------------------5---------------|-7--7---7---7-9---9-7-5-7--7-5-7-9--9---9-7-9------|
|----------------------------7---------7-5-7-7-9-7-9-|---9--9--------------------------------------------|
|--2-5-2-0-3-5-3-0-5-7-5-0-7---7-5-7-----------------|---------------------------------------------------|

                                                           Let ring--------|  
|---------------------------------------------------------|---------------------|
|---------------------------------------------------------|---------------------|
|-9--7----7-----------------------------------------------|-------0-------------|
|-------9---9-7-5-7-9-7-5----5-----------------2------0---|-------0-------------|
|-------------------------7----7-5------------------------|---------------------|
|----------------------------------7-5-7-5-3-0------------|-0-------------------|


Текст, аккорды и табулатура для песни "Richies Acoustic Thang", исполняет "Poison".
Используемые в песне аккорды можно найти в разделе Как брать аккорды. Аккорды для шестиструнной гитары. Другие песни можно найти на нашем сайте, воспользовавшись алфавитным указателем вверху страницы.


 
Ошибка в тексте? Выделите ошибку и нажмите Ctrl+Enter