poison
nothin but a good time.
bass tab

tuning
eadg

intro      twice
--------------------------------
--------------------------------
--------------------------------
4-4-------------4-4-------------

--------------------------------|
--------------------------------|
----------------4-4-------------|
2-2---------------------4-2-0-2-|
do the last 4 notes only the second 
time here

verse fig. 1
--------------------------------
--------------------------------
--------------------------------
4-4-4-4-4-4-4-4-4-4-4-4-4-4-4-2-

--------------------------------|
--------------------------------|
--------------4-4-4-4-4-4-4-4-4-|
--2-2-2-2-2-2-------------------|

--------------------------------
--------------------------------
--------------------------------
4-4-4-4-4-4-4-4-4-4-4-4-4-4-4-2-

--------------------------------|
--------------------------------|
--------------4-4-4-4-4-4-4-4---|
--2-2-2-2-2-2-----------------4~|

verse fig. 2       twice
--------------------------------
--6~~~~~~~~~~~--small-
--------------------------rest--
4~~~~~~~~~~~~~--------

------------------6~~~~~|
--4~~~~~----------------|
----------------4~~~~~~~|
2~~~~~~~----------------|

then verse fig 1 twice
ending with 0-2-4 on the e string

chorus
------------------------------
------------------------------
------------------------------
4-4-4-4-4-4-4-2---2-2-2-2-2-2-

----------------------------------
----------------------------------
4---4-4-4-4-----------------------
------------0-2-4---4-4-4-4-4-4-4-

chorus ending
------------------------------
------------------------------
------------------------------
4-4-4-4-4-4-4-2---2-2-2-2-2-2-

------------------------------|
------------------------------|
4---4-4-4-4-------------------|
------------0-2-4~~~~~~~~~~~~~|

then verse fig 2 twice, 
ending with 4-2-0-2- on 
the e string

then verse fig 1 twice, 
ending with 4-2-0- on 
the e string

then chorus

then chorus ending

then chorus like thing    twice
------------------------------|
6~~~~~~~~~~~~~4~~~~~~~~~~~~~~~|
------------------------------|
------------------------------|

6~~~~~~~~~~~~~----------------|
--------------6~~~~~~~~~~~~~~~|
------------------------------|
----------------------4-0-2-4-|
do the last 4 nots only the 
second time here

then chorus 3 times with solo

then chorus ending with a slide
from 9 to 0 on the e string right 
afterwards

then rest for 2:51 to 3:05

then chorus 3 times

then chrous ending once


notes

~ = hold
/ and  = slide up and down

on verse fig. 2 what is tabbed is him playing
the root note, and the same note an octave 
higher and holding them, then sliding them both 
down at once to the low end of thefretboard.  
the rest should be self-explanitory. 
      *tabbed for gil perez 

email me at [email protected]


Текст, аккорды и табулатура для песни "Nothing But A Good Time", исполняет "Poison".
Используемые в песне аккорды можно найти в разделе Как брать аккорды. Аккорды для шестиструнной гитары. Другие песни можно найти на нашем сайте, воспользовавшись алфавитным указателем вверху страницы.


 
Ошибка в тексте? Выделите ошибку и нажмите Ctrl+Enter