Main Riff:

e-------------------------------------|
b-------------------------------------|
g-------------------------------------|
d-----2-----4-----5------4------4h5---|
a-----2-----4-----5------4------4h5---|
E-0-0---0-0---0-0----0-0----0-0-------|

varse:
e---------------------------|
b---------------------------|
g--9-----Then main riff----|  Play 2 times
d--9-----------------------|
a--7-----------------------|
E---------------------------|
Pre-Chorus:
e---------------------------------------------|
b---------------------------------------------|
g---5----------7------------------------------|
d---5-2meas.---7--1&hlf.meas------------------|
a---3----------5-------------------5--4-------|
E----------------------------------3--2-------|

Chorus:
e------------------------------------|
b------------------------------------|
g-----------5------7-----------------|
d-2---------5------7-----------------|
a-2-2meas---3------5----5--4---------|
E-0---------------------3--2---------|

Lead:

e--------------------------------------------------------------|
b----------------9h11h12---10----------------------------------|
g---------9h11h12------------12-11-12p11p9---9-----------------|
d--9h11h12---------------------------------12--12p11p9--11p9---|
a-----------------------------------------------------------12-|
E--------------------------------------------------------------|

e--15------------------------------|
b----14--15------------------------|
g------13--14--15------------------|
d------------13--14--15-------14---|
a------------------13--14-----14---|
E------------------------13---12---|

e------------------------10-------|
b-9-----8-----8-7-8---7-----------|
g-------------------9-------------|
d---------------------------------|
a---------------------------------|
E------------------------------0--|

For the last verse just pound out an E power chord and that is it.


Текст, аккорды и табулатура для песни "Look What The Cat Dragged In", исполняет "Poison".
Используемые в песне аккорды можно найти в разделе Как брать аккорды. Аккорды для шестиструнной гитары. Другие песни можно найти на нашем сайте, воспользовавшись алфавитным указателем вверху страницы.


 
Ошибка в тексте? Выделите ошибку и нажмите Ctrl+Enter