#----------------------------------PLEASE NOTE---------------------------------#
#This file is the author's own work and represents their interpretation of the-#
#song. You may only use this file for private study, scholarship, or research.-#
#------------------------------------------------------------------------------#

 Song:LIFE LOVES A TRAGEDY
 By: poison
Tabbed by: [email protected]                     


 Intro


  Gtr I
   <                   <
                                 1
|-------------------|---------------------|
|-------------------|---------------------|
|-16----------------|-14----16-(16)-------|
|-------------------|---------------------|
|-------------------|---------------------|
|-------------------|---------------------|
|
| Gtr II
|-----3--------3----|----2---3---2----0---|
|-------3---3-------|---------------3---0-|
|---------0---------|---------------------|
|-----------------0-|--0------------------|
|-----------------5-|---------------------|
|--3----------(3)---|---------------------|


                                         ~~
|-------------------------------------|----------------------|
|-------------------------------15----|----------------------|
|-(16)-----------12--14b16-(14)----14-|-12-------(12)-------|
|---------12h=14----------------------|----------------------|
|-------------------------------------|----------------------|
|-------------------------------------|----------------------|
|
|-------0--------------------2--------|--------3--(3)----3---|
|-------0--------------------3---3--3-|------3-------------3-|
|--------------------------------2----|----5-----------5-----|
|---------(2)-----0-------------------|--5-------------------|
|-------------------------------------|--3-------------------|
|---0---------------------------------|----------------------|


|-------------------------------|-----------------17pb19==|
|-15pb17r=(15)-----------15pb17r|=(15)--------------------|
|-------------------------------|-------------------------|
|-------------------------------|-------------------------|
|-------------------------------|-------------------------|
|-------------------------------|-------------------------|
|
|-----------3---------3---------|------2--3-2---0---------|
|--------------3---3------------|-------------3----0------|
|----------------0--------------|-------------------------|
|-------------------------0-----|---0---------------------|
|-------------------------5-----|-------------------------|
|--3-----------------(3)--------|-------------------------|


                                                                  <
                                               ~~~~
|-(17)r=(17)-17pb19r(17)-17pb19r(17)-17b19-|-(17)-17p15-------------------------|
|------------------------------------------|------------17----------------------|
|------------------------------------------|---------------------14pb16r(14)----|
|------------------------------------------|------------------------------------|
|------------------------------------------|------------------------------------|
|------------------------------------------|------------------------------------|
|
|---------0---------------2----------------|---------------3-(3)----------3-----|
|---------0---------------3-------3---3----|-------------3-------------------3--|
|---------------------------------2--------|-------5--------------5-------------|
|------------(2)------0--------------------|---5--------------------------------|
|------------------------------------------|---3--------------------------------|
|---0--------------------------------------|------------------------------------|


                          1st Verse
   ~~
|-----------------------||----------------|
|-----------------------||----------------|
|-12------(12)---------||----------------|
|-----------------------||----------------|
|-----------------------||----------------|
|-----------------------||----------------|
|
|-----3------------3----||---2--3-2---0---|
|-------3-------3-------||----------3---0-|
|-----------0-----------||----------------|
|---------------------0-||-0--------------|
|---------------------5-||----------------|
|--3--------------(3)---||----------------|


|------------------|-10pb12======(10)r(10)-------|
|------------------|-----------------------------|
|------------------|-----------------------------|
|------------------|-----------------------------|
|------------------|-----------------------------|
|------------------|-----------------------------|
|
|----0-------2-----|---------------3---(3)---3---|
|----0-------3-3-3-|-----------3---------------3-|
|--------------2---|---------5-------------5-----|
|------(2)-0-------|--5--------------------------|
|------------------|--3--------------------------|
|-0----------------|-----------------------------|


  Gtr II
|----3--------3----|---2--3-2---0---|----0-------2-----|-------3-(3)---3---|
|------3---3-------|----------3---0-|----0-------3-3-3-|-----3-----------3-|
|--------0---------|----------------|--------------2---|---5---------5-----|
|----------------0-|-0--------------|------(2)-0-------|-5-----------------|
|----------------5-|----------------|------------------|-3-----------------|
|-3----------(3)---|----------------|-0----------------|-------------------|


|----3--------3----|---2--3-2---0---|----0-------2-----|-------3-(3)---3----|
|------3---3-------|----------3---0-|----0-------3-3-3-|-----3------------3-|
|--------0---------|----------------|--------------2---|---5---------5------|
|----------------0-|-0--------------|------(2)-0-------|-5------------------|
|----------------5-|----------------|------------------|-3------------------|
|-3----------(3)---|----------------|-0----------------|--------------------|
|
| Gtr I
|                                                            < <  <  < <  <
|------------------|----------------|------------------|--------------------|
|------------------|----------------|------------------|---------------8-10-|
|------------------|----------------|------------------|----------7--9------|
|------------------|----------------|------------------|-----7-9------------|
|------------------|----------------|------------------|--------------------|
|------------------|----------------|------------------|--------------------|


|----3-----------3----|---2--3-2---0---|----0-------2-----|-------3-(3)---3----|
|-------3-----3-------|----------3---0-|----0-------3-3-3-|-----3------------3-|
|-----------0---------|----------------|--------------2---|---5---------5------|
|-------------------0-|-0--------------|------(2)-0-------|-5------------------|
|-------------------5-|----------------|------------------|-3------------------|
|-3-------------(3)---|----------------|-0----------------|--------------------|
|
| <                                                             < <  <  < <  <
| ~
|---------------------|----------------|------------------|--------------------|
|-8----(8)-----------|----------------|------------------|---------------8-10-|
|---------------------|----------------|------------------|----------7--9------|
|---------------------|----------------|------------------|-----7-9------------|
|---------------------|----------------|------------------|--------------------|
|---------------------|----------------|------------------|--------------------|


|----3-----------3----|---2--3-2---0---|----0-------2-----|-------3-(3)---3---|
|-------3-----3-------|----------3---0-|----0-------3-3-3-|-----3-----------3-|
|-----------0---------|----------------|--------------2---|---5---------5-----|
|-------------------0-|-0--------------|------(2)-0-------|-5-----------------|
|-------------------5-|----------------|------------------|-3-----------------|
|-3-------------(3)---|----------------|-0----------------|-------------------|
|
| <
| ~
|---------------------|----------------|------------------|-------------------|
|-8----(8)-----------|----------------|------------------|-------------------|
|---------------------|----------------|------------------|-------------------|
|---------------------|----------------|------------------|-------------------|
|---------------------|----------------|------------------|-------------------|
|---------------------|----------------|------------------|-------------------|


                                                        Gtr II
|----3--------3----|---2--3-2---0---|---0-------------|-3----|
|------3---3-------|----------3---0-|-------3---3---3-|-3----|
|--------0---------|----------------|-----------------|-0----|
|----------------0-|-0--------------|-----2-----------|-0----|
|----------------5-|----------------|-3-------2---0---|------|
|-3----------(3)---|----------------|-----------------|-3----|


              Gtr I
|-(3)----(3)-----||---------------|-------------|--------------|
|-(3)----(3)--7--||o-7h8-7h8-7----|--7--8--8--5-|-5h6-5h6-5----|
|-(0)----(0)--7--||--7-7-7-7-7----|--7--7--7--5-|-5-5-5-5-5----|
|-(0)----(0)--7--||--7h9-7h9-7----|--7--9--9--5-|-5h7-5h7-5----|
|----------------||o--------------|-------------|--------------|
|-(3)----(3)-----||---------------|-------------|--------------|


  1.             2.
                    PM|   PM|   PM--------|
|--------------||-----------------|----------------|-3-----3----|
|--5--6--5--7-o||-----------------|----------------|-3-----3----|
|--5--5--5--7--||-----------------|----------------|-0-----0--7-|
|--5--7--5--7--||-----------------|---------5s4-2--|-0-----0--7-|
|-------------o||-3-3-3-2-2-2-3-3-|-3-2-2-2-3s2-0--|----------5-|
|--------------||-----------------|----------------|-3-----3----|


|--------------|--------------|---------------|-3-----3----|
|------------8-|-(8)----------|---------------|-3-----3----|
|-(7)-----7--7-|-(7)-----7--5-|-5-------------|-0-----0--7-|
|-(7)-----7--9-|-(9)-----7--5-|-5-----5s4-2---|-0-----0--7-|
|-(5)-----5--7-|-(7)-----5--3-|-3---x-3s2-0---|----------5-|
|--------------|--------------|-------------3-|-3-----3----|


                                                   PM------|
|--------------|--------------|---------------|----------------|
|------------8-|-(8)----------|---------------|----------------|
|-(7)-----7--7-|-(7)-----7--5-|-5-------------|--------------7-|
|-(7)-----7--9-|-(9)-----7--5-|-5-----5s4-2---|-5------------7-|
|-(5)-----5--7-|-(7)-----5--3-|-3---x-3s2-0---|-5------------5-|
|--------------|--------------|-------------3-|-3--3-3-3-3-3---|


       PM----|          PM--|                             PM--|   PM
|------------------|---------------|-----------------|----------------|
|------------------|-8-------------|-----------------|----------------|
|-(7)--------------|-7--------7--5-|-(5)--5----------|--------------7-|
|-(7)----------7s9-|-9--------7--5-|-(5)--5--5s4-2---|-5--------5---7-|
|-(5)--5-5-5-5-5s7-|-7--7-7-7-5--3-|-(3)--3--3s2-0---|-5--------5---5-|
|------------------|---------------|---------------3-|-3--3-3-3-3-3---|


     PM--|   PM         PM--|
|----------------|-----------------|
|--------------8-|-(8)-------------|
|-7--------7---7-|-(7)--------7--7-|
|-7--------7---9-|-(9)--------7--7-|
|-5--5-5-5-5-5-7-|-(7)--7-7-7-5--5-|
|----------------|-----------------|
|
| Gtr III
|----------------|-----------------|
|----------------|-----------------|
|----------------|-----------------|
|----------------|-----------------|
|----------------|-----------------|
|----------------|-----------------|


                   $
|------------------|------------------------------|
|----------------7-|----------7h=8---7h===8-7-----|
|-(7)--5---------7-|----------7--7---7----7-7-----|
|-(7)--5---5S4---7-|----------7h=9---7h===9-7-----|
|-(5)--3-3-3S2-0---|------------------------------|
|------------------|------------------------------|
|
|------------------|------------------------------|
|------------------|-22b24==(22)---(22)r---------|
|------------------|------------------------------|
|------------------|------------------------------|
|------------------|------------------------------|
|------------------|------------------------------|


|-------------|--------------------|
|--7--8--8--5-|-5h6-5h6---5--------|
|--7--7--7--5-|-5-5-5-5---5--------|
|--7--9--9--5-|-5h7-5h7---5--------|
|-------------|--------------------|
|-------------|--------------------|
|
|-------------|-----------------12-|
|-------------|-----------------12-|
|-------------|--------------------|
|-------------|-------x-x-x-x-x----|
|-------------|-------x-x-x-x-x----|
|-------------|--------------------|


|--------------------------------------|-------------------|
|-------5----------6---------5-------7-|---7h=8-7h8-7------|
|-------5----------5---------5-------7-|---7--7-7-7-7------|
|-------5----------7---------5-------7-|---7h=9-7h9-7------|
|--------------------------------------|-------------------|
|--------------------------------------|-------------------|
|
|-12-12---12-12---12---12-12-----12----|-------------------|
|-12-12---12-12---12---12-12-----12-10-|-(10)--------------|
|--------------------------------------|-------------------|
|-------x-------x----x-------x-x-------|-------------------|
|-------x-------x----x-------x-x-------|-------------------|
|--------------------------------------|-------------------|


                                               Chorus
               
|-------------|--------------|---------------||--------------|
|--7--8--8--5-|-5h6-5h6-5----|---------------||-3---3-3------|
|--7--7--7--5-|-5-5-5-5-5----|---------------||-0---0-0----7-|
|--7--9--9--5-|-5h7-5h7-5----|-5-5-5-4--2----||-0---0-0----7-|
|-------------|--------------|-3-3-3-2--0----||------------5-|
|-------------|--------------|-------------3-||-3---3-3--3---|


|--------------|-----------------|-------------------|--------------|
|------------8-|-(8)----(8)------|-------------------|-3----3-3-----|
|-(7)------x-7-|-(7)----(7)-7--5-|-(5)---5-----------|-0----0-0---7-|
|-(7)------x-9-|-(9)----(9)-7--5-|-(5)-5-5---5-4-2---|-0----0-0-x-7-|
|-(5)------x-7-|-(7)----(7)-5--3-|-(3)-3-3-0-3-2-0---|----------x-5-|
|--------------|-----------------|-----------------3-|-3----3-3-x---|


                                                                              To Coda
|-----------------|--------------|---------------------------------------------------|
|---------------8-|-(8)----------|---------------------------------------------------|
|-(7)---7-7-7-x-7-|-(7)-----7--5-|--------(5)----------------------------------------|
|-(7)---7-7-7-x-9-|-(9)-----7--5-|--------(5)-------------------5s==========4---2----|
|-(5)---5-5-5-x-7-|-(7)-----5--3-|--------(3)-------------------3s==========2---0----|
|-----------------|--------------|---------------------------------------------------|
|
| Gtr III
|                                                                               ~~
|-----------------|--------------|---------------------------------------------------|
|-----------------|--------------|-10b12-(10)---10b12==(10)---(10)r-10b12-(10)-10----|
|-----------------|--------------|---------------------------------------------------|
|-----------------|--------------|---------------------------------------------------|
|-----------------|--------------|---------------------------------------------------|
|-----------------|--------------|---------------------------------------------------|
|
| Gtr IV
|-----------------|--------------|------------------------------------------------12-|
|-----------------|--------------|------------------------------------------------12-|
|-----------------|--------------|---------------------------------------------------|
|-----------------|--------------|-----------------------x--x---x-----------x---x----|
|-----------------|--------------|-----------------------x--x---x-----------x---x----|
|-----------------|--------------|---------------------------------------------------|


                                        ~~~~
|------------------------------------------|
|-22b24==(22)-----(22)r-22b24==(22)r==(22)-|
|------------------------------------------|
|------------------------------------------|
|------------------------------------------|
|------------------------------------------|
|
|------------------------------------------|
|----------3----3---3----------------------|
|----------0----0---0-------------------7--|
|----------0----0---0-------------------7--|
|---------------------------------------5--|
|----------3----3---3---------------3------|
|
|------------------------------------------|
|------------------------------------------|
|------------------------------------------|
|------------------------------------------|
|------------------------------------------|
|------------------------------------------|


    ~~~~
|-------------------------------------|-----------------------------|
|-(22)--20-22b24-(22)-22b24==(22)-----|-(22)r(22)--20-22---20--22---|
|-------------------------------------|-----------------------------|
|-------------------------------------|-----------------------------|
|-------------------------------------|-----------------------------|
|-------------------------------------|-----------------------------|
|
|-------------------------------------|-----------------------------|
|-----------------------------------8-|--(8)------------------------|
|--(7)------7------7-----------7--x-7-|--(7)-------------7--------5-|
|--(7)------7------7-----------7--x-9-|--(9)-------------7--------5-|
|--(5)------5------5-----------5--x-7-|--(7)-------------5--------3-|
|-------------------------------------|-----------------------------|


                                        2nd Verse
|-------------------------------------||-------------------|
|-22b24==(22)-22-22-22---22---22r(22)-||-20--(20)---------|
|-------------------------------------||-------------------|
|-------------------------------------||-------------------|
|-------------------------------------||-------------------|
|-------------------------------------||-------------------|
|
|-------------------------------------||--3----------3-----|
|-------------------------------------||--3----------3-----|
|---------(5)-------------------------||--0----------0--7--|
|---------(5)--------5s4----2---------||--0----------0--7--|
|---------(3)--------3s2----0---------||----------------5--|
|-------------------------------------||--3----------3-----|


|------------|--------------|---------------|-3-----3----|
|----------8-|-(8)----------|---------------|-3-----3----|
|-7-----7--7-|-(7)-----7--5-|-5-------------|-0-----0--7-|
|-7-----7--9-|-(9)-----7--5-|-5-----5s4-2---|-0-----0--7-|
|-5-----5--7-|-(7)-----5--3-|-3---x-3s2-0---|----------5-|
|------------|--------------|-------------3-|-3-----3----|


                                         
                                                          < < < < <  <
|------------|--------------|-10pb12====(10)r(10)----|------------------|
|----------8-|-(8)----------|------------------------|------------8-10--|
|-7-----7--7-|-(7)-----7--5-|------------------------|--------7-9-------|
|-7-----7--9-|-(9)-----7--5-|------------------------|----7-9-----------|
|-5-----5--7-|-(7)-----5--3-|------------------------|------------------|
|------------|--------------|------------------------|------------------|


  <
  ~
|--------------|--------------|-------------|--------------|
|-8---(8)-----|-7h8-7h8-7----|--7--8--8--5-|-5h6-5h6-5----|
|--------------|-7-7-7-7-7----|--7--7--7--5-|-5-5-5-5-5----|
|--------------|-7h9-7h9-7----|--7--9--9--5-|-5h7-5h7-5----|
|--------------|--------------|-------------|--------------|
|--------------|--------------|-------------|--------------|


|--------------|-------------|--------------|-------------||
|-7h8-7h8-7----|--7--8--8--5-|-5h6-5h6-5----|--5--6--5--7-||
|-7-7-7-7-7----|--7--7--7--5-|-5-5-5-5-5----|--5--5--5--7-||
|-7h9-7h9-7----|--7--9--9--5-|-5h7-5h7-5----|--5--7--5--7-||
|--------------|-------------|--------------|-------------||
|--------------|-------------|--------------|-------------||


 Guitar Solo
                          T  T    T  T        T
|----------------|----------------------------------|
|-----5---5--0---|----------------------------------|
|-6h7---7--------|----------------------9h11-14p9s7-|
|----------------|----------------------------------|
|----------------|-------17-17---17-17--------------|
|--------------0-|-(0)--------------(0)-------------|
|
| Gtr III
|----------------|----------------------------------|
|-7h8-7h8-7------|-----7-------8--------8---------5-|
|-7-7-7-7-7------|-----7-------7--------7---------5-|
|-7h9-7h9-7------|-----7-------9--------9---------5-|
|----------------|----------------------------------|
|----------------|----------------------------------|


   T        T           T
|-------------------------------------|
|-------------------------------------|
|-14p7-(7)-14p9s7p==5-[17]b19===(17)r=|
|-------------------------------------|
|-------------------------------------|
|-------------------------------------|
|
|-------------------------------------|
|----5h=6-------5h6-5-----------------|
|----5--5-------5-5-5-----------------|
|----5h=7-------5h7-5-----------------|
|-------------------------------------|
|-------------------------------------|


|----------------------------------------|----------------------------------|
|----------------------------------------|-12b13====12---12r---12b13-----12-|
|-(17)b19====(17)r=(17)b19====(17)r------|-12b14====12---12r---12b14-12--12-|
|----------------------------------------|----------------------------------|
|----------------------------------------|----------------------------------|
|----------------------------------------|----------------------------------|
|
|----------------------------------------|----------------------------------|
|----------5----------------6-------5--7-|--7h====8----7h====8--7-----------|
|----------5----------------5-------5--7-|--7-----7----7-----7--7-----------|
|----------5----------------7-------5--7-|--7h====9----7h====9--7-----------|
|----------------------------------------|----------------------------------|
|----------------------------------------|----------------------------------|


               6/   6/  6/     6/   6/   6/
|-------------------------------|-------------------------|
|-10----(10)-------------------|-------------------------|
|-11----(11)-11----------7-----|-9-----7-----4-----5-----|
|--------------------9----------|-------------------------|
|-------------------------------|-------------------------|
|-------------------------------|-------------------------|
|
|-------------------------------|-------------------------|
|----7----8--------8----------5-|-5h==6-----5h====6-5-----|
|----7----7--------7----------5-|-5---5-----5-----5-5-----|
|----7----9--------9----------5-|-5h==7-----5h====7-5-----|
|-------------------------------|-------------------------|
|-------------------------------|-------------------------|


|-----------------------------------------------------14h15h17-|
|-------------------7h8h10-------------------13h15h17----------|
|-------------5h7h9-----------------12h14h16-------------------|
|-------5h7h9--------------12h14h16----------------------------|
|-5h7h9--------------------------------------------------------|
|--------------------------------------------------------------|
|
|--------------------------------------------------------------|
|-7h====8-----7h====8-------7----------------------------------|
|-7-----7-----7-----7-------7----------------------------------|
|-7h====9-----7h====9-------7----------------------------------|
|--------------------------------------------------------------|
|--------------------------------------------------------------|


|-17b19==(17)------(17)r-17pb19r=(17)--|
|--------------------------------------|
|--------------------------------------|
|--------------------------------------|
|--------------------------------------|
|--------------------------------------|
|
|--------------------------------------|
|-------------7--8--------8--------5---|
|-------------7--7--------7--------5---|
|-------------7--9--------9--------5---|
|--------------------------------------|
|--------------------------------------|


|-17p==15-17b19-(17)-17b19r(17)p15-|-19-17-15------17-15---------15----19-17-15------17-15---------15----|
|----------------------------------|------------19-------19-17------19------------19-------19-17------19-|
|----------------------------------|---------------------------------------------------------------------|
|----------------------------------|---------------------------------------------------------------------|
|----------------------------------|---------------------------------------------------------------------|
|----------------------------------|---------------------------------------------------------------------|
|
|----------------------------------|---------------------------------------------------------------------|
|--5h6--5h=6------5----------------|----------7----------------8----------------8----------------5-------|
|--5-5--5--5------5----------------|----------7----------------7----------------7----------------5-------|
|--5h7--5h=7------5----------------|----------7----------------9----------------9----------------5-------|
|----------------------------------|---------------------------------------------------------------------|
|----------------------------------|---------------------------------------------------------------------|


|-19-17-15------17-15-----------------------------------|
|------------19-------19-17---15-15-17-15-------17-15---|
|-----------------------------------------17-17---------|
|-------------------------------------------------------|
|-------------------------------------------------------|
|-------------------------------------------------------|
|
|-------------------------------------------------------|
|--7h======8--------7h======8--------7------------------|
|--7-------7--------7-------7--------7------------------|
|--7h======9--------7h======9--------7------------------|
|-------------------------------------------------------|
|-------------------------------------------------------|


               ~~~~~~~
|------------------------------------|----------------------------------|
|-22b24r=(22)-20-(20)----------------|------------19-(19)---------------|
|------------------------21b23==(21)-|-(21)r==(21)----------21b24==(21)-|
|------------------------------------|----------------------------------|
|------------------------------------|----------------------------------|
|------------------------------------|----------------------------------|
|
|------------------------------------|----------------------------------|
|--7-------8-------8---5-------------|---7h=8---7h=8---7----------------|
|--7-------7-------7---5-------------|---7--7---7--7---7----------------|
|--7-------9-------9---5-------------|---7h=9---7h=9---7----------------|
|------------------------------------|----------------------------------|
|------------------------------------|----------------------------------|


                                                                              
|------------------------------0-22b24-|-(22)--22b24-(22)---22b24-(22)---22b24-(22)-22b24-(22)--22b24-(22)|
|-------------22b24==(22)r(22)---------|------------------------------------------------------------------|
|(21)r(21)-19--------------------------|------------------------------------------------------------------|
|--------------------------------------|------------------------------------------------------------------|
|--------------------------------------|------------------------------------------------------------------|
|--------------------------------------|------------------------------------------------------------------|
|
|---------------------------------------|-------------------------------------------------------|
|--------7------8------------8-----5----|---5h6------------5h===========6---------5-------------|
|--------7------7------------7-----5----|---5-5------------5------------5---------5-------------|
|--------7------9------------9-----5----|---5h7------------5h===========7---------5-------------|
|---------------------------------------|-------------------------------------------------------|
|---------------------------------------|-------------------------------------------------------|


    &&
||------------------|--------------|------------|------------------|
||o-----------------|-3---3-3------|----------8-|-(8)----(8)-------|
||--5---5-----------|-0---0-0----7-|-7------x-7-|-(7)----(7)-7--5--|
||--5-5-5---5-4-2---|-0---0-0----7-|-7------x-9-|-(9)----(9)-7--5--|
||o-3-3-3-0-3-2-0---|------------5-|-5------x-7-|-(7)----(7)-5--3--|
||----------------3-|-3---3-3--3---|------------|------------------|


|-------------------|--------------|------------|------------------||
|-------------------|-3---3-3------|----------8-|-(8)----(8)------o||
|-(5)---5-----------|-0---0-0----7-|-7------x-7-|-(7)----(7)-7--5--||
|-(5)-5-5---5-4-2---|-0---0-0----7-|-7------x-9-|-(9)----(9)-7--5--||
|-(3)-3-3-0-3-2-0---|------------5-|-5------x-7-|-(7)----(7)-5--3-o||
|-----------------3-|-3---3-3--3---|------------|------------------||


  PM----------------------------|
|-----------------|----------------|------*|
|-----------------|----------------|------*|
|-----------------|----------------|-0----*|
|-5-5-5-5-5-5-5-5-|-5-5-5-5-5-4-2--|-0----*|
|-3-3-3-2-2-2-3-3-|-3-2-2-2-3-2-0--|------*|
|-----------------|----------------|-3----*|



1 means use the bar....im sure you'll be able to figure out all the lil 
symbols when hearing the song.

=============================================================================


Текст, аккорды и табулатура для песни "Life Loves A Tragedy", исполняет "Poison".
Используемые в песне аккорды можно найти в разделе Как брать аккорды. Аккорды для шестиструнной гитары. Другие песни можно найти на нашем сайте, воспользовавшись алфавитным указателем вверху страницы.


 
Ошибка в тексте? Выделите ошибку и нажмите Ctrl+Enter